Song name
# A B C D E F G H I J K L M N O P Q R S T U V W X Y Z

Strung Out - Dont Look Back Live tab

-------------------------------------------------------------------------------
			DON'T LOOK BACK (LIVE) - STRUNG OUT
-------------------------------------------------------------------------------
Tabbed by:BASIKSTUFF
Email:BASIKSTUFF@HOTMAIL.COM

Tuning: STANDARD (EADGBE)

this is my first tab, so try not to be to harsh now, strokes should be easy to 
figure out so im gonna leave them out. im also missing a few parts, anyone
that can figure them out, we can collaberate our tabs together. any mistakes?
email em to me

intro part is a bit tough so ill start AT 0:19
0:19
e|---------------------------------------------------------------------------|
B|---------------------------------------------------------------------------|
G|---------------------------------------------------------------------------|
D|--6--8--5--8---------------------------------------------------------------|
A|--6--8--5--8---------------------------------------------------------------|
E|--4--6--3--6---------------------------------------------------------------|
0:21 x5			     last part starts @ 0:34
e|--------------------------|-------------------------------------------------|
B|--------------------------|-------------------------------------------------|
G|--5-3-5-------5-3-8-7-8-7-|-5-3-5-------8-----------------------------------|
D|--x-x-x-5-3-5-x-x-x-x-x-x-|-x-x-x-5-3-5-x-8---------------------------------|
A|--3-1-3-x-x-x-3-1-6-5-6-5-|-3-1-3-x-x-x-6-x---------------------------------|
E|--------3-1-3-------------|-------3-1-3---6---------------------------------|
^---------------------------^
repeat 4 times
0:47 
e|---------------------------------------------------------------------------|
B|---------------------------------------------------------------------------|
G|--------5------------------------------------------------------------------|
D|--6-3-5-x------------------------------------------------------------------|
A|--6-3-5-3------------------------------------------------------------------|
E|--4-1-3--------------------------------------------------------------------|
0:55
E|---------------------------------------------------------------------------|
B|---------------------------------------------------------------------------|
G|---------------------------------------------------------------------------|
D|-5-7-8-7---8-10-8---10-12-10--8-7------------------------------------------|
A|-3-5-6-5---6-8--6---8--10-8---6-5------------------------------------------|
E|---------------------------------------------------------------------------|
1:00
E|---------------------------------------------------------------------------|
B|---------------------------------------------------------------------------|
G|---------------------------------------------------------------------------|
D|-5-7-8-7---8-5-----------8-------------------------------------------------|
A|-3-5-6-5---6-7-8---5-6-5-6-------------------------------------------------|
E|---------------6---3-4-3---------------------------------------------------|
1:05
e|--------------------------|------------------------------------------------|
B|--------------------------|------------------------------------------------|
G|--5-3-5-------5-3-8-7-8-7-|-5-3-5-------8----------------------------------|
D|--x-x-x-5-3-5-x-x-x-x-x-x-|-x-x-x-5-3-5-x----------------------------------|
A|--3-1-3-x-x-x-3-1-6-5-6-5-|-3-1-3-x-x-x-6----------------------------------|
E|--------3-1-3-------------|-------3-1-3------------------------------------|
1:10
e|--------------------------------------------------------------------------|
B|--------------------------------------------------------------------------|
G|--5-3-5-------5-3-8-7-8-7-------------------------------------------------|
D|--x-x-x-5-3-5-x-x-x-x-x-x-------------------------------------------------|
A|--3-1-3-x-x-x-3-1-6-5-6-5-------------------------------------------------|
E|--------3-1-3-------------------------------------------------------------|
   ^--------------^
      palm mute
1:20 x2 (missing little fill at the end of the 2nd)
e|--------------------------------------------------------------------------|
B|--------------------------------------------------------------------------|
G|--------5-----------------------------------------------------------------|
D|--6-3-5-x-----------------------------------------------------------------|
A|--6-3-5-3-----------------------------------------------------------------|
E|--4-1-3-------------------------------------------------------------------|
1:31
e|--------------------------------------------------------------------------|
B|--------------------------------------------------------------------------|
G|--------------------------------------------------------------------------|
D|--------5----8--5----------5----8--5--------------------------------------|
A|--6-8---3--8-6--3-8-6-5----3--8-6--3-8-6-5--------------------------------|
E|--4-6------6------6-----6-----6------6-----6------------------------------|
1:45 (palm mute mixed in)
e|--------------------------------------------------------------------------|
B|--------------------------------------------------------------------------|
G|--------------------------------------------------------------------------|
D|---5----8--5----8---5----8--5---8-----------------------------------------|
A|---3--8-6--3--8-6---3--8-6--3-8-6-----------------------------------------|
E|------6-------6--------6------6-------------------------------------------|
2:02
e|--------------------------------------------------------------------------|
B|-pick slide---------------------------------------------------------------|
G|----or--------------------------------------------------------------------|
D|-slide down--------------8-7----------------------------------------------|
A|-------------------5-6-5-6-5-8-5------------------------------------------|
E|-------------------3-4-3-----6-3------------------------------------------|
sorry dont know the solo, heres the rhythm part though
2:06
E|---------------------------------------------------------------------------|
B|---------------------------------------------------------------------------|
G|---------------------------------------------------------------------------|
D|-5-7-8-7---8-10-8---10-12-10--8-7------------------------------------------|
A|-3-5-6-5---6-8--6---8--10-8---6-5------------------------------------------|
E|---------------------------------------------------------------------------|
2:11
E|---------------------------------------------------------------------------|
B|---------------------------------------------------------------------------|
G|---------------------------------------------------------------------------|
D|-5-7-8-7---8-5------------3-1-0--------------------------------------------|
A|-3-5-6-5---6-7-8---5-6-5--3-1-0--------------------------------------------|
E|---------------6---3-4-3--1-x-x--------------------------------------------|
2:16
E|---------------------------------------------------------------------------|
B|---------------------------------------------------------------------------|
G|---------------------------------------------------------------------------|
D|-5-7-8-7---8-10-8---10-12-10--8-7------------------------------------------|
A|-3-5-6-5---6-8--6---8--10-8---6-5------------------------------------------|
E|---------------------------------------------------------------------------|
2:21
E|---------------------------------------------------------------------------|
B|---------------------------------------------------------------------------|
G|---------------------------------------------------------------------------|
D|-5-7-8-7---8-5------------3-1-0--------------------------------------------|
A|-3-5-6-5---6-7-8---5-6-5--3-1-0--------------------------------------------|
E|---------------6---3-4-3--1-x-x--------------------------------------------|
2:27
e|---------------------------------------------------------------------------|
B|---------------------------------------------------------------------------|
G|--5-3-5-------5-3-8-7-8-7--------------------------------------------------|
D|--x-x-x-5-3-5-x-x-x-x-x-x--------------------------------------------------|
A|--3-1-3-x-x-x-3-1-6-5-6-5--------------------------------------------------|
E|--------3-1-3--------------------------------------------------------------|
2:29
e|---------------------------------------------------------------------------|
B|---------------------------------------------------------------------------|
G|--5-3-5-------5-3-8-7-8-7------5-------------------------------------------|
D|--x-x-x-5-3-5-x-x-x-x-x-x------x-------------------------------------------|
A|--3-1-3-x-x-x-3-1-6-5-6-5------3-------------------------------------------|
E|--------3-1-3--------------------------------------------------------------|

there ya go.
===============================================================================
Tap to rate this tab
 
# A B C D E F G H I J K L M N O P Q R S T U V W X Y Z