Song name
# A B C D E F G H I J K L M N O P Q R S T U V W X Y Z

Strunz And Farah - Jardin tab

Strunz & Farah
Jardin

Note that this version I'm tabbing was a live performance. This only means that there 
a few more fancy things added in, i.e, hammer-on's and such. They are real small changes 
makes everything sound that much more better.

link to live performance - http://www.youtube.com/watch?v=c2LTqf128SQ
link to album version - http://www.youtube.com/watch?v=5ewK2_-IRTg

-The timing is based off the album version.

-The solos will not be included, if i ever add them, it will be from the album version, 
if that's what you were looking for.

Guitar 1 & 2    0:00-0:20
E|----3-----1h3p1-----0-------1------|-3-3-----1h3p1-----0-------1-------|
B|------3---------3-------3-------3--|-----3---------3-------3-------3---|
G|--------2---------2-------2-------2|-------2---------2-------2-------2-|
D|----0--------------(0)-------------|-0----------------(0)--------------|
A|-----------------------------------|-----------------------------------|
E|-----------------------------------|-----------------------------------|

E|--3-3-----1h3p1-----0-------1------|-3-3-----1h3p1-----0-------1-------|
B|------3---------3-------3-------3--|-----3---------3-------3-------3---|
G|--------3---------3-------3-------3|-------3---------3-------3-------3-|
D|--0----------------(0)-------------|-0----------------(0)--------------|
A|-----------------------------------|-----------------------------------|
E|-----------------------------------|-----------------------------------|

E|----3-----1h3p1-----0-------1------|-3-3-----1h3p1-----0-------1-------|
B|------3---------3-------3-------3--|-----3---------3-------3-------3---|
G|--------2---------2-------2-------2|-------2---------2-------2-------2-|
D|----0--------------(0)-------------|-0----------------(0)--------------|
A|-----------------------------------|-----------------------------------|
E|-----------------------------------|-----------------------------------|

E|--3-3-----1h3p1-----0-------1------|---5-5-5-5---5-5-5---3-1-0---1-3---|
B|------3---------3-------3-------3--|---3-3-3-3---3-3-3---3-3-3---3-3---|
G|--------3---------3-------3-------3|---3-3-3-3---3-3-3---3-3-3---3-3---|
D|--0----------------(0)-------------|-----------------------------------|
A|-----------------------------------|-----------------------------------|
E|-----------------------------------|-----------------------------------|


Guitar 1 & 2    0:20-0:38
E|---12----10---------8------10------|12-12----10---------8------10------|
B|-----10--------10------10------10--|-----10--------10------10------10--|
G|-------10--------10------10------10|-------10--------10------10------10|
D|----0--------------(0)-------------|-0-----------------(0)-------------|
A|-----------------------------------|-----------------------------------|
E|-----------------------------------|-----------------------------------|

E|12-12----10---------8------10------|12-12----10---------8------10------|
B|-----11--------11------11------11--|-----11--------11------11------11--|
G|-------10--------10------10------10|-------10--------10------10------10|
D|-0----------------(0)--------------|-0-----------------(0)-------------|
A|-----------------------------------|-----------------------------------|
E|-----------------------------------|-----------------------------------|

E|---12----10---------8------10------|12-12----10---------8------10------|
B|-----10--------10------10------10--|-----10--------10------10------10--|
G|-------10--------10------10------10|-------10--------10------10------10|
D|----0--------------(0)-------------|-0-----------------(0)-------------|
A|-----------------------------------|-----------------------------------|
E|-----------------------------------|-----------------------------------|

E|12-12----10---------8------10------|---12-12-12-12---13-10-12----------|
B|-----11--------11------11------11--|---10-10-10-10---10-10-10----------|
G|-------10--------10------10------10|---10-10-10-10---10-10-10----------|
D|-0----------------(0)--------------|-----------------------------------|
A|-----------------------------------|-----------------------------------|
E|-----------------------------------|-----------------------------------|


Guitar 1     0:39-1:11
E|------5h6p5---------------|----5h6p5-------------------|
B|------------8-6-5---8-6~--|----------8-6-5---8-6---5---|
G|--------------------------|--------------------------7~|
D|--7-7---------------------|7-7-------------------------|
A|--------------------------|----------------------------|
E|--------------------------|----------------------------|

E|-----------------------|
B|-----3-3h6p3-----------|
G|---5---------5-3-------|
D|-7---------------2h3p2~|
A|-----------------------|
E|-----------------------|

E|---5h6p5-----------------|-----5h6p5---------------------|
B|---------8-6-5---8-6/8/6~|-----------8-6-5---8-5h6--5----|
G|-------------------------|----------------------------7~-|
D|7-7----------------------|-7-7---------------------------|
A|-------------------------|-------------------------------|
E|-------------------------|-------------------------------|

E|-----------------------|
B|-----3-5h6p5-3---------|
G|-3-5-----------5-7///--|
D|-----------------------|
A|-----------------------|
E|-----------------------|


E|------5h6p5---------------|----5h6p5-------------------|
B|------------8-6-5---8-6~--|----------8-6-5---8-6---5---|
G|--------------------------|--------------------------7~|
D|--7-7---------------------|7-7-------------------------|
A|--------------------------|----------------------------|
E|--------------------------|----------------------------|

E|------------------|-----------------------|
B|------------------|-----3-3h6p3-----------|
G|----------3h5-3~--|---5---------5-3-------|
D|----0-3-5---------|-7---------------2h3p2~|
A|------------------|-----------------------|
E|------------------|-----------------------|

E|---5h6p5-----------------|-----5h6p5---------------------|
B|---------8-6-5---8-6/8/6~|-----------8-6-5---8-5h6--5----|
G|-------------------------|----------------------------7~-|
D|7-7----------------------|-7-7---------------------------|
A|-------------------------|-------------------------------|
E|-------------------------|-------------------------------|

E|------------------|-----------------------|
B|-(3)--------3h5p3-|-----3-5h6p5-3---------|
G|-(3)----3h5-------|-3-5-----------5-7///--|
D|-(3)--3-----------|-----------------------|
A|-(5)5-------------|-----------------------|
E|--3---------------|-----------------------|

Guitar 2    0:39-1:11
E|-5-5---5-|-5-5---5-|-5-5---5-|-3-3---3-|-3-3---3-|-3-3---3-|-5-5---5-|
B|-6-6---6-|-6-6---6-|-6-6---6-|-3-3---3-|-3-3---3-|-3-3---3-|-6-6---6-|
G|-7-7---7-|-7-7---7-|-7-7---7-|-3-3---3-|-3-3---3-|-3-3---3-|-7-7---7-|
D|-7-7---7-|-7-7---7-|-7-7---7-|-5-5---5-|-5-5---5-|-5-5---3-|-7-7---7-| x4
A|-5-5---5-|-5-5---5-|-5-5---5-|-5-5---5-|-5-5---5-|-5-5---3-|-5-5---5-|
E|-5-5---5-|-5-5---5-|-5-5---5-|-3-3---3-|-3-3---3-|-3-3---3-|-5-5---5-|

Guitar 1 (& maybe 2)  1:11-1:24
E|-------------|-------------|-3-------3---3-3-3----|
B|-6-----8---6-|-5-----------|-3-----3-----3-3-3----|
G|---7---------|---7---7---5-|-3---3-------3-3-3----|
D|-----7-------|-----5-------|-5-----------5-5-5----|
A|-------------|-------------|-5--------------------|
E|-------------|-------------|-3--------------------|

////////////////////////////////////////////////////////////////////////////
possible guitar 2 -I'm not too sure, but i hear small chords being played with the part above:
E|-5-----------|-5-----------|-3--------------------|
B|-6-----------|-5-----------|-3--------------------|
G|-7-----------|-5-----------|-3--------------------|
D|-7-----------|-7-----------|-5--------------------|
A|-------------|-------------|----------------------|
E|-------------|-------------|----------------------|
////////////////////////////////////////////////////////////////////////////

E|-------------|-------------|-3---------------------3-|
B|-6-----8---6-|-5-----------|-3-------------------3---|
G|---7---------|---7---7---5-|-3-------------3---3-----|
D|-----7-------|-----5-------|-5-----------5---5-------|
A|-------------|-------------|-5---------5-------------|
E|-------------|-------------|-3---3-4p3---------------|

E|-------------|-------------|-3-------3---3-3-3----|
B|-6-----8---6-|-5-----------|-3-----3-----3-3-3----|
G|---7---------|---7---7---5-|-3---3-------3-3-3----|
D|-----7-------|-----5-------|-5-----------5-5-5----|
A|-------------|-------------|-5--------------------|
E|-------------|-------------|-3--------------------|

Guitar 1  1:25-1:27                 Guitar 2   1:25-1:27     1:28
E|---------------|---------------| E|-3-------|-6---------| |-5-|
B|---------------|---------------| B|-3-------|-6---------| |-5-|
G|-3-----5---3---|-3-----5---3---| G|-3-------|-7---------| |-6-|
D|---3---------3-|---3---------3-| D|-5-------|-8---------| |-7-|
A|-----5---------|-----5---------| A|-5-------|-8---------| |-7-|
E|---------------|---------------| E|-3-------|-6---------| |-5-|

Guitar 1   1:28-1:37
E|--------------------------------------------------|
B|--------------------------------------------------|
G|-2-------2--3----------3--5-------5--3----------3-|
D|----2----------2-----2-------2----------2-----2---|
A|------0-----------0------------0-----------0------|
E|--------------------------------------------------|

E|-----------------------------------------------------|
B|-----------------------------------------------------|
G|-2-------2--3----------3--5-------5--3----------3--2-|
D|----2----------2-----2-------2----------2-----2----2-|
A|------0-----------0------------0-----------0-------0-|
E|-----------------------------------------------------|

Guitar 2  1:28-1:37
E|--------------------------------------------------|
B|-5-------5--6----------6--5-------5--6----------6-|
G|----5----------5-----5-------5----------5-----5---|
D|------7-----------7------------7-----------7------|
A|--------------------------------------------------|
E|--------------------------------------------------|

E|-----------------------------------------------------|
B|-5-------5--6----------6--5-------5--6----------6--5-|
G|----5----------5-----5-------5----------5-----5----5-|
D|------7-----------7------------7-----------7-------7-|
A|-----------------------------------------------------|
E|-----------------------------------------------------|
Tap to rate this tab
 
# A B C D E F G H I J K L M N O P Q R S T U V W X Y Z