Song name
# A B C D E F G H I J K L M N O P Q R S T U V W X Y Z

Stryper - Wait For You tab

Help us improve GuitareTab! Take a short survey!
-------------------------------------------------------------------------------
			     SONG NAME - Band Name
-------------------------------------------------------------------------------
Tabbed by:
Email:

Tuning: Down to D flat. (1 whole step and a half)

e|-------------------------------------------------------------------------|
B|-------------------------------------------------------------------------|
G|-7--9------------7-----------------------------7--9------------7---------|
D|-7--9----5--8----7-----------------------------7--9----5--7----7---------|
A|-5--7----5--8----5-(Repeat with "Na na na's")--5--7----5--7----5---------|
E|---------3--6------------------------------------------3--5--------------|
 The chords are played many more times than once, listen for rhythm.
e|-------------------------------------------------------------------------|
B|-(Gtr 1)-----------------------------------------------------------------|
G|-4--5--4--5------------7-------------------------------------------------|
D|-4--5--4--5----5--7----7-------------------------------------------------|
A|-2--3--2--3----5--7----5-------------------------------------------------|
E|---------------3--5------------------------------------------------------|
  (Chorus)^^ Chords are played more than once.
e|-------------------------------------------------------------------------|
B|-------------------------------------------------------------------------|
G|-(Gtr 2)-----------------------------------------------------------------|
D|-------------------------------------------------------------------------|
A|-5-7-5-7/9-7-5-2-(This-little-ditty-is-played-under-the-chorus-----------|
E|-------------------------------------------------------------------------|
 That's the basis of the song except for the solo...
e|-------------------------------------------------------------------------|
B|-------------------------------------------------------------------------|
G|-7/9/11-(9)-(9)-9-7-9/11\9-4-(9)\7\3-(9)-7-------------------------------|
D|-------------------------------------------------------------------------|
A|-------------------------------------------------------------------------|
E|-------------------------------------------------------------------------|
  The scond part is done with harmony, and played differently.
e|-------------------------------------------------------------------------|
B|-------------------------------------------------------------------------|
G|-7/9/11-(9)-(9)-(9)-(9)-(9)-7-9-11-9\4-(9)-7-7-(9)-7---------------------|
D|-------------------------------------------------------------------------|
A|-------------------------------------------------------------------------|
E|-------------------------------------------------------------------------|
 All bends are bent up exactly 1 whole step. Here's the harmony.
e|-------------------------------------------------------------------------|
B|-------------------------------------------------------------------------|
G|-11/12/14-(12)-(12)-(12)-(12)-(12)-11-12/14\7-(12)-11-11-(12)-11---------|
D|-------------------------------------------------------------------------|
A|-------------------------------------------------------------------------|
E|-------------------------------------------------------------------------|
  End.
e|-------------------------------------------------------------------------|
B|-------------------------------------------------------------------------|
G|-3-3-3-3-3-3-3-3-5-5-5-5-5-5-5-5--7--------------------------------------|
D|-3-3-3-3-3-3-3-3-5-5-5-5-5-5-5-5--7--------------------------------------|
A|-1-1-1-1-1-1-1-1-3-3-3-3-3-3-3-3--5--------------------------------------|
E|-------------------------------------------------------------------------|

| /  slide up
| \  slide down
| h  hammer-on
| p  pull-off
| ~  vibrato
| +  harmonic
| x  Mute note
|( ) Bend up
Related for Wait For You tab