Song name
# A B C D E F G H I J K L M N O P Q R S T U V W X Y Z

Stryper - Live Again tab

Live again -  stryper
tabber fab 
tuning drop C#


introp/verse

D#|-------------------------------------------------|
A#|-------------------------------------------------|
F#|-------------------------------------------------|
C#|----------12---------10---------8---------7-5\7--|
G#|----------10---------8----------6---------5-3\5--|
C#|--0-0-0-0----0-0-0-0----0-0-0-0---0-0-0-0--------|

bridge??
D#|-------------------------------------------------|
A#|-------------------------------------------------|
F#|-------------------------------------------------|
C#|--5--4--3--------3--2--1-------------------------|
G#|--5--4--3--------3--2--1-------------------------|
C#|--5--4--3--------3--2--1-------------------------|



Ok this is one of my first tabs but it's alright  
I don't know the lead parts 
if you do..mail me at fab@bobstanley.cjb.net
Tap to rate this tab
# A B C D E F G H I J K L M N O P Q R S T U V W X Y Z