Song name
# A B C D E F G H I J K L M N O P Q R S T U V W X Y Z

Stryper - The Way tab

Help us improve GuitareTab! Take a short survey!
Song:The Way
Artist:Stryper
Album:To Hell With The Devil
Tuning:Standard
E-Mail:A7X_122992@yahoo.com...if you have any questions

The solo is taken from christianguitar.org

Legend
* either pinch or artifical harmonic....pretty sure its a pinch harmonic
/ Slide
h Hammer-on
P Pull-on
W Whammy
. Mute
B Bend
V Vibrato
B/R Bend and Release

Intro
                    (-----------------------4-Times---------------------------|
  (----1st Part---------------------------------------------------------------| . ..  ....  ...
e)----------------------------------------------------------------------------|
B)----------------------------------------------------------------------------|
G)-8-8-8-8-8-8-8-8---------------------------8-----------------------------3--|
D)-8-8-8-8-8-8-8-8------5-----6-----5-----3*-8------5-----6-----5----------3--|
A)-6-6-6-6-6-6-6-6--3-33--3333--3333--3333--06--3-33--3333--3333---------1-1--|
E)----------------------------------------------------------------0-1-3-4-----|

Verse {Hold Note From Intro Riff Into The Verse}

                  ... ... ... ... ... ..
e)----------------------------------------------------)
B)----------------------------------------------------)
G)-{3}---10-8-7-4-----------------------5-------------)
D)-{3}---10-8-7-4-----------------------5-8-6-6--8-9--)
A)-{1}---9--6-5-3-333-333-333-333-333-333-8-6-6--8-9--)
E)----------------------------------------6-4-4--6-7--)
                  ... ... ... ... ... ..

e)-------------------------------------------------)
B)-------------------------------------------------)
G)-4-----------------------5-------------10-8-7-4--)
D)-4-----------------------5-8-6-6--8-9--10-8-7-4--)
A)-3-333-333-333-333-333-333-8-6-6--8-9--9--6-5-3--)
E)---------------------------6-4-4--6-7------------)
     ... ... ... ... ... ..
{Repeat 2 Times DO NOT!!! Repeat Ghost note)


Pre-Chorus

e)---------------------)
B)---------------------)
G)---------------------)
D)-5------6------8--9--)x2
A)-5------6------8--9--)
E)-3------4------6--7--)


Chorus

e)-----------------)
B)-----------------)
G)-5---------------)
D)-5---5---6--8-9--)x2
A)-3---5---6--8-9--)
E)-----3---4--6-7--)

Go Back To Intro DO Not Do the first part


Verse 2
(Same Thing But You Just Go Into It Differently)

e)---------)
B)---------)
G)-{3}--4--) Then The Rest Of The Verse
D)-{3}--4--)
A)-{1}--2--)
E)---------)

Pre-Chorus

Chorus

SOLO (From Christianguitar.org)

             W
e)-W------13-13----)
B)-13--13----------)
G)---W-------------)
D)---15------------)
A)-----------------)
E)-----------------)

e)--------------------------------------------------------V---)
B)-------------------------------------------8-9-11-9-8---8---)
G)-3h5p3p0----5h7p5p0----5h6p5p0----6hp8p6p0-----------10-----)
D)------------------------------------------------------------)
A)------------------------------------------------------------)
E)------------------------------------------------------------)

e)---------------------------------------------)
B)-------------8-6-4----6-4--------------------)
G)-------5-7-8-------------7--------7-8-10-----)
D)-5-6-8----------------------6-8-10-----------)
A)---------------------------------------------)
E)---------------------------------------------)

e)----------------------------------------------)
B)-8-9-11-9-8--8-B/R-----h--p----h-p----h-p-----)
G)-----------10--10-----8-10-8--7-9-7--5-7-5----)
D)----------------------------------------------)
A)----------------------------------------------)
E)----------------------------------------------)

e)-W----------------)
B)-13-W--W--W--W----)
G)----15-13-12-10---)
D)------------------)
A)------------------)
E)------------------)

  Bend The 16 Then Vibrato It With The Whammy
e)-16--------------------------------------------------------------------)
B)------h--p--s------h--p--s------h-p---s---h---p-s----h-p-s----h-p-s----)
G)----13-15-13\12--12-13-12\10--10-12-10\8--8-10-8\7--7-8-7\5--5-7-5\3---)
D)-----------------------------------------------------------------------)
A)-----------------------------------------------------------------------)
E)-----------------------------------------------------------------------)

e)-13-15-16-15-13--15-13--13------------------------------)
B)---------------16-----16--16-15-13-16-15-13--15-13------)
D)-------------------------------------------15-----15----)
G)---------------------------------------------------13---)
A)--------------------------------------------------------)
E)--------------------------------------------------------)

On Final Note Off Solo off solo start the intro agian with the first part then go the 
agian then go into the intro agian without the first part

Hope You Enjoy.. This Song Is Really Fun To Play
Related for The Way tab