Guitaretab - guitar tabs
Song name
# A B C D E F G H I J K L M N O P Q R S T U V W X Y Z

Stryper - Rockin The World tab

-------------------------------------------------------------------------------
                            ROCKIN THE WORLD - Stryper
-------------------------------------------------------------------------------
Tabbed By: 0GibsonLesPaul0

Tuning: Standard


INTRO

e|-----------------------------------------------------------------------------|
B|-----------------------------------------------------------------------------|
G|-6-6---------------------------------6-6-------------------------------------|
D|-6-6---------------------------------6-6-------------------------------------|
A|-4-4-4-4-4-4-4-4-4-4-4-4-4-4-4-4-4-44-4-4-4-44-4-4-4-4-4-4-4-4-4-4-4-4-4---|
E|-----------------------------------------------------------------------------|
P.M   |-------------------------------|   |------------------------------------|

e|----------------------------------------------|
B|-------------------------------------------o--|
G|-4-3-6-6---------------------------------4----|
D|-4-3-6-6---------------------------------4----|
A|-2-1-4-4-4-4-4-4-4-4-4-4-4-4-4-4-4-4-4-4-2-o--|
E|----------------------------------------------|
P.M.      |-------------------------------------|


VERSE

e|------------------------------------------------------------------------------|
B|o-----------------------------------------------------------------------------|
G|--6-6---------------------------------6-6-------------------------------------|
D|--6-6---------------------------------6-6-------------------------------------|
A|o-4-4-4-4-4-4-4-4-4-4-4-4-4-4-4-4-4-44-4-4-4-44-4-4-4-4-4-4-4-4-4-4-4-4-4---|
E|------------------------------------------------------------------------------|
P.M   |-------------------------------|   |-------------------------------------|

e|------------------------------------------------|
B|---------------------------------------------o--|
G|-4-3-6-6---------------------------------4-3----|
D|-4-3-6-6---------------------------------4-3----|
A|-2-1-4-4-4-4-4-4-4-4-4-4-4-4-4-4-4-4-4-4-2-1-o--|
E|------------------------------------------------|
P.M.      |---------------------------------------|


PRE CHORUS

e|----------------------------------------------------------------------------|
B|----------------------------------------------------------------------------|
G|-----7---2------------------------------------------------------7---4---6---|
D|-4---7---2--------------------------2-----------------------4---7---4---6---|
A|-4---5---0-0-0-0-0-0-0-0-0-0-0-0-0--2-----------------------4---5---2---4---|
E|-2----------------------------------0-0-0-0-0-0-0-0-0-0-0-0-2---------------|
P.M.        |-----------------------|  |--------------------------------------|


CHORUS

e|-------------------------------------------|
B|-------------------------------------------|
G|-8---6-4---6---4---8---6-8---6-4---6---4---|
D|-8---6-4---6---4---8---6-8---6-4---6---4---|
A|-6---4-2---4---2---6---4-6---4-2---4---2---|
E|-------------------------------------------|


PRE VERSE
[ Tab from: http://www.guitaretab.com/s/stryper/180601.html ]
e|-----------------------------------------------------------------------------|
B|-----------------------------------------------------------------------------|
G|-6-6---------------------------------6-6-------------------------------4-3---|
D|-6-6---------------------------------6-6-------------------------------4-3---|
A|-4-4-4-4-4-4-4-4-4-4-4-4-4-4-4-4-4-44-4-4-4-44-4-4-4-4-4-4-4-4-4-4-4-2-1---|
E|-----------------------------------------------------------------------------|
P.M   |-------------------------------|   |------------------------------------|

VERSE

e|------------------------------------------------------------------------------|
B|o-----------------------------------------------------------------------------|
G|--6-6---------------------------------6-6-------------------------------------|
D|--6-6---------------------------------6-6-------------------------------------|
A|o-4-4-4-4-4-4-4-4-4-4-4-4-4-4-4-4-4-44-4-4-4-44-4-4-4-4-4-4-4-4-4-4-4-4-4---|
E|------------------------------------------------------------------------------|
P.M   |-------------------------------|   |-------------------------------------|

e|------------------------------------------------|
B|---------------------------------------------o--|
G|-4-3-6-6---------------------------------4-3----|
D|-4-3-6-6---------------------------------4-3----|
A|-2-1-4-4-4-4-4-4-4-4-4-4-4-4-4-4-4-4-4-4-2-1-o--|
E|------------------------------------------------|
P.M.      |---------------------------------------|


SOLO

e|---------------------7----9----------b14p12---------------------16-17-19--|
B|-7-9-10-7TR-/7-9-10---10----10--------------15-14-12---------/19----------|
G|-------------------------9-----9--------------------14-13-----------------|
D|---------------------------7-----11-----------------------14~-------------|
A|--------------------------------------------------------------------------|
E|--------------------------------------------------------------------------|

e|-16-17-19-19b21/14~----------------------------------------|
B|----------------------------------------------12h14-10-----|
G|-----------------------------------11~--11h13----------11~-|
D|--------------------12p11p9--11h12-------------------------|
A|-----------------------------------------------------------|
E|-----------------------------------------------------------|

e|---------------------------------|
B|---------------------------------|
G|-6h8p6h8p6-----------------------|
D|----------9-86--------------4/--|
A|---------------9-8-6---------4/--|
E|---------------------9-8-6-4-2/--|


CHORUS

e|-------------------|
B|-------------------|
G|-8/----------4/6---|
D|-8/----------4/6---|
A|-6/---------2/4----|
E|-------------------|

e|-------------------------------------------|
B|-------------------------------------------|
G|-8---6-4---6---4---8---6-8---6-4---6---4---|
D|-8---6-4---6---4---8---6-8---6-4---6---4---|
A|-6---4-2---4---2---6---4-6---4-2---4---2---|
E|-------------------------------------------|


OUTRO

e|------------------------------------------------------------------------------|
B|o-----------------------------------------------------------------------------|
G|--6-6---------------------------------6-6-------------------------------------|
D|--6-6---------------------------------6-6-------------------------------------|
A|o-4-4-4-4-4-4-4-4-4-4-4-4-4-4-4-4-4-44-4-4-4-44-4-4-4-4-4-4-4-4-4-4-4-4-4---|
E|------------------------------------------------------------------------------|
P.M   |-------------------------------|   |-------------------------------------|

e|------------------------------------------------|
B|---------------------------------------------o--|
G|-4-3-6-6---------------------------------4-3----|
D|-4-3-6-6---------------------------------4-3----|
A|-2-1-4-4-4-4-4-4-4-4-4-4-4-4-4-4-4-4-4-4-2-1-o--|
E|------------------------------------------------|
P.M.      |---------------------------------------|

Keep repeating and fade out.
Related for Rockin The World tab