Song name
# A B C D E F G H I J K L M N O P Q R S T U V W X Y Z

Stryper - 4 Leaf Clover tab

Tuning:Drop D

Intro
e|-----------------------------------------------------|
B|-----------------------------------------------------|
G|-----------------------------------------------------|
D|-----------------------------------------------------| 
A|------8-8---8-----9-----6-----8-----9-----6-----+8---|
D|------8-8------8-----8-----8-----8-----8-----8-------|

e|--------------------------------------|
B|--------------------------------------|
G|--------------------------------------|
D|--------3-----4--------------3---+3---| 
A|---4-4--------------4---3-3-----------|
D|---4-4-----4-----4------3-3----3------|
Tap to rate this tab
# A B C D E F G H I J K L M N O P Q R S T U V W X Y Z