Song name
# A B C D E F G H I J K L M N O P Q R S T U V W X Y Z

Stryper - 4 Leaf Clover tab

Stryper

4 Leaf Clover

Tabbed by: Jonathan Cullis

Tuning: Drop D

* - Pinch harmonic
b - Bend
x - Rest until next note
. - Palm mute

|---------------------------------------------------------------------------------------------|
|---------------------------------------------------------------------------------------------|
|---------------------------------------------------------------------------------------------|
|------------------------------------------------------------------4-----------1-----3b4-3*---|  x4
|---8-8--8-----9-----6-----8-----9-----6-----8*---4-4--6-----8--------4---1-1-----------------|
|---8-8-----8-----8-----8-----8-----8-----8-------4-4-----4-----4---------1-1-----1-----------|
            .     .     .     .     .     .               .     .                 .

|-----------------------------------------------|
|-----------------------------------------------|
|-----------------------------------------------|
|-----------------------------------------------|
|---8-8--x-------------\4--(4)------1--(1)------|
|---8-8--x-------------\4--(4)------1--(1)------|

|-----------------------------------------------|
|-----------------------------------------------|
|-----------------------------------------------|
|-----------------------------------------------|
|---8--(8)--------------1--(1)------6--(6)------|
|---8--(8)--------------1--(1)------6--(6)------|

|-----------------------------------------------|
|-----------------------------------------------|
|-----------------------------------------------|
|-----------------------------------------------|
|---8--(8)--------------4--(4)------1--(1)------|
|---8--(8)--------------4--(4)------1--(1)------|

|------------------------------------------------------------------------------|
|------------------------------------------------------------------------------|
|------------------------------------------------------------------------------|
|---6-------------6--6-------------6--4----------------------------------------|
|---4-4-4-4-4-4-4-4--3-3-3-3-3-3-3-3--2-2-2-2-2-2-2-2-2-2-2-2-2-2-2-2-2--------|
|------------------------------------------------------------------------------|
      . . . . . .      . . . . . .      . . . . . . . . . . . . . . . .

|------------------------------------------------------------------------------------------------|
|------------------------------------------------------------------------------------------------|
|------------------------------------------------------------------------------------------------|
|------------------------------------------------------------------------------------------------x2
|---8-8-8-8-8-8-8-8--11-11-11-11-11-11-11-11--16-16-16-16-16-16-16-16--13-13-13-13-13-13-13-13---|
|---8-8-8-8-8-8-8-8--11-11-11-11-11-11-11-11--16-16-16-16-16-16-16-16--13-13-13-13-13-13-13-13---|

|---------------------------------------------------------------------------------------------|
|---------------------------------------------------------------------------------------------|
|---------------------------------------------------------------------------------------------|
|------------------------------------------------------------------4-----------1-----3b4-3*---|
|---8-8--8-----9-----6-----8-----9-----6-----8*---4-4--6-----8--------4---1-1-----------------|
|---8-8-----8-----8-----8-----8-----8-----8-------4-4-----4-----4---------1-1-----1-----------|
            .     .     .     .     .               .     .

|----------------------------------------------------------------------------------|
|----------------------------------------------------------------------------------|
|----------------------------------------------------------------------------------|
|----------------------------------------------------------------------------------|
|---8---------------------------------4--------------------1-----------------------|
|---8--8-8-8-8-8-8-8-8-8-8-8-8-8-8-8--4--4-4-4-4-4-4-4-4---1--1-1-1-1-1--4--1--4---|
       . . . . . . . . . . . . . . .     . . . . . . . .      . . . . . 

|-------------------------------------------------------------------------------|
|-------------------------------------------------------------------------------|
|-------------------------------------------------------------------------------|
|-------------------------------------------------------------------------------|
|---8---------------------------------1--------------------6--------------------|
|---8--8-8-8-8-8-8-8-8-8-8-8-8-8-8-8--1--1-1-1-1-1-1-1-1---6--6-6-6-6-6-6-6-6---|
       . . . . . . . . . . . . . . .     . . . . . . . .      . . . . . . . .

|-------------------------------------------------------------------------------|
|-------------------------------------------------------------------------------|
|-------------------------------------------------------------------------------|
|-------------------------------------------------------------------------------|
|---8---------------------------------4--------------------1--------------------|
|---8--8-8-8-8-8-8-8-8-8-8-8-8-8-8-8--4--4-4-4-4-4-4-4-4---1--1-1-1-1-1-1-1-1---|
       . . . . . . . . . . . . . . .     . . . . . . . .      . . . . . . . .

|------------------------------------------------------------------------------|
|------------------------------------------------------------------------------|
|------------------------------------------------------------------------------|
|---6-------------6--6-------------6--4----------------------------------------|
|---4-4-4-4-4-4-4-4--3-3-3-3-3-3-3-3--2-2-2-2-2-2-2-2-2-2-2-2-2-2-2-2-2--------|
|------------------------------------------------------------------------------|
      . . . . . .      . . . . . .      . . . . . . . . . . . . . . . .

|------------------------------------------------------------------------------------------------|
|------------------------------------------------------------------------------------------------|
|------------------------------------------------------------------------------------------------|
|-----------------------------------------------------------------------------------------------x2
|---8-8-8-8-8-8-8-8--11-11-11-11-11-11-11-11--16-16-16-16-16-16-16-16--13-13-13-13-13-13-13-13---|
|---8-8-8-8-8-8-8-8--11-11-11-11-11-11-11-11--16-16-16-16-16-16-16-16--13-13-13-13-13-13-13-13---|


|---------------------------------------------------------------------------------------------|
|---------------------------------------------------------------------------------------------|
|---------------------------------------------------------------------------------------------|
|------------------------------------------------------------------4-----------1-----3b4-3*---|
|---8-8--8-----9-----6-----8-----9-----6-----8*---4-4--6-----8--------4---1-1-----------------|
|---8-8-----8-----8-----8-----8-----8-----8-------4-4-----4-----4---------1-1-----1-----------|
            .     .     .     .     .               .     .

Solo - These are the rythem notes while the solo is going on
|-------------------------------------------------------------------------------|
|-------------------------------------------------------------------------------|
|-------------------------------------------------------------------------------|
|-------------------------------------------------------------------------------|
|---8---------------------------------4--------------------1--------------------|
|---8--8-8-8-8-8-8-8-8-8-8-8-8-8-8-8--4--4-4-4-4-4-4-4-4---1--1-1-1-1-1-1-1-1---|
       . . . . . . . . . . . . . . .     . . . . . . . .      . . . . . . . .

|-------------------------------------------------------------------------------|
|-------------------------------------------------------------------------------|
|-------------------------------------------------------------------------------|
|-------------------------------------------------------------------------------|
|---8---------------------------------1--------------------6--------------------|
|---8--8-8-8-8-8-8-8-8-8-8-8-8-8-8-8--1--1-1-1-1-1-1-1-1---6--6-6-6-6-6-6-6-6---|
       . . . . . . . . . . . . . . .     . . . . . . . .      . . . . . . . .

|-------------------------------------------------------------------------------|
|-------------------------------------------------------------------------------|
|-------------------------------------------------------------------------------|
|-------------------------------------------------------------------------------|
|---8---------------------------------4--------------------1--------------------|
|---8--8-8-8-8-8-8-8-8-8-8-8-8-8-8-8--4--4-4-4-4-4-4-4-4---1--1-1-1-1-1-1-1-1---|
       . . . . . . . . . . . . . . .     . . . . . . . .      . . . . . . . . 

|------------------------------------------------------------------------------|
|------------------------------------------------------------------------------|
|------------------------------------------------------------------------------|
|---6-------------6--6-------------6--4----------------------------------------|
|---4-4-4-4-4-4-4-4--3-3-3-3-3-3-3-3--2-2-2-2-2-2-2-2-2-2-2-2-2-2-2-2-2--------|
|------------------------------------------------------------------------------|
      . . . . . .      . . . . . .      . . . . . . . . . . . . . . . . 

Break for the Bass and Sining Part (2:53 to 3:06)

|------------------------------------------------------------------------------------------------|
|------------------------------------------------------------------------------------------------|
|------------------------------------------------------------------------------------------------|
|------------------------------------------------------------------------------------------------x2
|---8-8-8-8-8-8-8-8--11-11-11-11-11-11-11-11--16-16-16-16-16-16-16-16--13-13-13-13-13-13-13-13---|
|---8-8-8-8-8-8-8-8--11-11-11-11-11-11-11-11--16-16-16-16-16-16-16-16--13-13-13-13-13-13-13-13---|


|---------------------------------------------------------------------------------------------|
|---------------------------------------------------------------------------------------------|
|---------------------------------------------------------------------------------------------|
|------------------------------------------------------------------4-----------1-----3b4-3*---|  x2
|---8-8--8-----9-----6-----8-----9-----6-----8*---4-4--6-----8--------4---1-1-----------------|
|---8-8-----8-----8-----8-----8-----8-----8-------4-4-----4-----4---------1-1-----1-----------|
            .     .     .     .     .               .     .

|---------|
|---------|
|---------|
|---------|
|---8-8---|
|---8-8---|
Tap to rate this tab
# A B C D E F G H I J K L M N O P Q R S T U V W X Y Z