Song name
# A B C D E F G H I J K L M N O P Q R S T U V W X Y Z

Stryper - Free tab

-----------------------------------------------------------------------
			 Free - Stryper
-----------------------------------------------------------------------
Tabbed by:5150rocker
Email:5150rocker@sbcglobal.net

Tuning:Standard
  INTRO Lead Gtr
e|----------15-14~~~--------15-14~---------12-------------------------|
B|--12h13h15--------12h13h15------15-12~~~~----12-15-13-12h13p12-10~~~|
G|--------------------------------------------------------------------|
D|--------------------------------------------------------------------|
A|--------------------------------------------------------------------|
E|--------------------------------------------------------------------|

e|----------------15-14~~~--------15-14~-----------12-------17-15-14--|
B|--10~~~~12h13h15--------12h13h15------15-12~~~12----15-12-----------|
G|--------------------------------------------------------------------|
D|--------------------------------------------------------------------|
A|--------------------------------------------------------------------|
E|--------------------------------------------------------------------|

e|--22-20-19h20p19-17-------17b18----17~/|
B|--------------------19-20-------19-----|
G|---------------------------------------|
D|---------------------------------------|
A|---------------------------------------|
E|---------------------------------------|
  INTRO Rythym Gtr
e|--------------------------------------------------------------------|
B|--------------------------------------------------------------------|
G|--------------------------------------------------------------------|
D|------9----9----9---9-9-7-5----5----5---5-5-7----5----7----9----12--|
A|------7-7777-7777-77777-5-3-3333-3333-33333-5----3----5----7----10--|
E|--17\---------------------------------------------------------------|

e|-----------|
B|-----------|
G|-----------|
D|--9-7-5-7--|
A|--7-5-3-5--|
E|-----------|
  VERSE
e|-------------------------------------------------------------------|
B|-------------------------------------------------------------------|
G|---------0-0-------------00-----------------------------------0----|
D|--7-77---0-0-------77----00----9999-------9---9---9--9---99---0----|
A|--5-55---------3~~~55----------7777-------7---7---7--7---77--------|
E|---------3-3-------------33---------17/-0000-0000-0000-0000-xx3----|
          p.h......................
e|--------------------------------|
B|--------------------------------|
G|--------------------------------|
D|----7---------------------------|
A|--xx5----3~~~3~~~5~~~3~3~~~5~~~~|
E|--------------------------------|
   CHORUS
e|----------------------------------------------------------------|
B|----------------------------------------------------------------|
G|----------------------------------------------------------------|
D|--9------------9--99-7-5------------5--55-7-9999-9999-7777-7777-|
A|--7777-7777-7777-777-5-3333-3333-3333-333-5-7777-7777-5555-5555-|
E|----------------------------------------------------------------|

e|----------------|
B|----------------|
G|----------------|
D|--5555-5555-7777|
A|--3333-3333-5555|
E|----------------|
  Play VERSE and CHORUS again
  SOLO Ryhtym Gtr
e|---------------------------------------------------------------|
B|---------------------------------------------------------------|
G|---------------------------------------------------------------|
D|--9------------9--99-7-5------------5--55----------------------|
A|--7777-7777-7777-777-5-3333-3333-3333-333-7----9---10----12----|
E|------------------------------------------5----7----8----10----|


e|------------------------------------------------------------------|
B|------------------------------------------------------------------|
G|------------------------------------------------------------------|
D|--9------------9--99-7-5------------5--55-------------------------|
A|--7777-7777-7777-777-5-3333-3333-3333-333-7----9---10----12121212-|
E|------------------------------------------5----7----8----10101010-|
  SOLO Lead Gtr
e|----------------------/8~~~~p7h8t15p7h8t17p7h8t15p7h8t12~~~|
B|-----------------------------------------------------------|
G|--2b3~~~~~0-trem dive--------------------------------------|
D|-----------------------------------------------------------|
A|-----------------------------------------------------------|
E|-----------------------------------------------------------|

e|--12h13h15--13-12----------------14-15-17-15-14----------------|
B|------------------15-13-12----------------------17-15-14-------|
G|---------------------------14~~~~------------------------16~~~~|
D|---------------------------------------------------------------|
A|---------------------------------------------------------------|
E|---------------------------------------------------------------|

e|--17-15-14----------15-13-12-------------------------------|
B|-----------17-15-14----------15-13-12----------------------|
G|--------------------------------------14-12-10-12-9-10-7~~~|
D|-----------------------------------------------------------|
A|-----------------------------------------------------------|
E|-----------------------------------------------------------|

e|--\20b22-20b22r20-19-17-20-19-17-20-19-17-------|
B|------------------------------------------19~~~~|
G|------------------------------------------------|
D|------------------------------------------------|
A|------------------------------------------------|
E|------------------------------------------------|

e|--22b23b24r22~~~19h22p19h22-19h20p19h20---------------|
B|----------------------------------------22-20-19------|
G|-------------------------------------------------21~~~|
D|------------------------------------------------------|
A|------------------------------------------------------|
E|------------------------------------------------------|

e|--h4h7t12p7p4p0-4h7t12p7p4p0-4h7t12p7p4p0-4h7t12p7p4p0-|
B|-------------------------------------------------------|
G|-------------------------------------------------------|
D|-------------------------------------------------------|
A|-------------------------------------------------------|
E|-------------------------------------------------------|

e|-------------------------------------------------------|
B|--h4h7t12p7p4p0-4h7t12p7p4p0-4h7t12p7p4p0-4h7t12p7p4p0-|
G|-------------------------------------------------------|
D|-------------------------------------------------------|
A|-------------------------------------------------------|
E|-------------------------------------------------------|

e|-------------------------------------------------------|
B|-------------------------------------------------------|
G|--h4h7t12p7p4p0-4h7t12p7p4p0-4h7t12p7p4p0-4h7t12p7p4p0-|
D|-------------------------------------------------------|
A|-------------------------------------------------------|
E|-------------------------------------------------------|

e|--17-19-20-22b23b24~~~~~|
B|------------------------|
G|------------------------|
D|------------------------|
A|------------------------|
E|------------------------|

For the remainder of the song play CHORUS but all chords are played two frets higher in 
same pattern though.For OUTRO SOLO it's the same as INTRO SOLO but like outro chorus it 
played two frets higher in the same pattern.


| /  slide up
| \  slide down
| h  hammer-on
| p  pull-off
| ~  vibrato
| +  harmonic
| x  Mute note
===============================================================================
Tap to rate this tab
# A B C D E F G H I J K L M N O P Q R S T U V W X Y Z