Song name
# A B C D E F G H I J K L M N O P Q R S T U V W X Y Z

Stryper - Battle Hymn Of The Republic tab

Tabbed by:Kenneth Petersen
Email:k.pete66@yahoo.com

Tuning: standard
CD: Soldiers Under Command
1985 Hollywood Records

www.stryper.com

  Verse: No Guitars
  Chorus
e|---------------------------------------------------------------------------|
B|---------------------------------------------------------------------------|
G|-------------------------------------------------------3--3-3--3-----------|
D|---------------------3--3-3--3-3--3-3--3-3--3-3--3--3--3--3-3--3-----------|
A|---------------------3--3-3--3-3--3-3--3-3--3-3--3--3--1--1-1--1-----------|
E|-//////// pick slide-1--1-1--1-1--1-1--1-1--1-1--1--1----------------------|

e|---------------------------------------------------------------------------|
B|-----------------------6-------5-------3-----------------------------------|
G|------------------5------7-------5-------3----------5----------------------|
D|-3--3-3--3--3--3--5--7-----7-5-----5-3-----3-----5--5----------------------|
A|-3--3-3--3--3--3--3--------------------------5~--5--3----------------------|
E|-1--1-1--1--1--1---------------------------------3-------------------------|

e|---------------------------------------------------------------------------|
B|---6-------5-------3-------------------------------------------------------|
G|-----7-------5-------3--------5-----3---6--8-------------------------------|
D|-7-----7-5-----5-3-----3----5-5--3--3---6--8--3----------------------------|
A|-------------------------5~-5-3--3--1---4--6--3----------------------------|
E|----------------------------3----1------------1----------------------------|



************************************

| /   slide up
| \   slide down
| h   hammer-on
| p   pull-off
| ~   vibrato
| +   harmonic
| x   Mute note
| b   Bend
| pb  Pre-bend
| br  Bend release
| pbr Pre-bend release
| brb Bend release bend

************************************

Mine eyes have seen the glory
Of the coming of the Lord
He is trampling out the vintage
Where the grapes of wrath are stored
He has loosed the fateful lightning
Of His terrible swift sword
His truth is marching on

Glory glory hallelujah (3x)

His truth is marching on (2x)
Tap to rate this tab
 
# A B C D E F G H I J K L M N O P Q R S T U V W X Y Z