Stryper - 4 Leaf Clover tab

4 Leaf Clover
Stryper
Tuning: Drop C#
Tabber JohanH - johanenevoldsen@gmail.com

All the other tabs are played in Drop d, but this is droped to C# because of the

solo.. You'll find out.

0:00 - Intro
D#:-------------------------------- \
A#:--------------------------------  \
F#:--------------------------------   \
C#:-----4---5---2---4---5---2---4*-    \
G#:-2-2---2---2---2---2---2---2----     \
C#:--------------------------------      \
                                          | x 4
D#:--------------------------------      /
A#:--------------------------------     /
F#:--------------------------------    /
C#:-------------5-------2---4-5-4*-   /
G#:-----7---9-----5----------------  /
C#:-5-5---5---5-----2-2---2-------- /

00:31 - Verse
D#:--------------------------------------|
A#:--------------------------------------|
F#:-4-4----------------------------------|
C#:-4-4---9\5-5----2-2---9-9---2-2---7-7-|
G#:-2-2---9\5-5----2-2---9-9---2-2---7-7-|
C#:-------9\5-5----2-2---9-9---2-2---7-7-|

D#:------------------|
A#:------------------|
F#:------------------|
C#:-9-9---5-5----2-2-|
G#:-9-9---5-5----2-2-|
C#:-9-9---5-5----2-2-|

00:54 - Pre-chorus
D#:-----------------------------------------------------------------|
A#:-----------------------------------------------------------------|
F#:-7-----------7---6-----------6---5-----------5---5-5-5-5-5-5-5-5-|
C#:-7-----------7---6-----------6---5-----------5---5-5-5-5-5-5-5-5-|
G#:-5-5-5-5-5-5-5-5-4-4-4-4-4-4-4-4-3-3-3-3-3-3-3-3-3-3-3-3-3-3-3-3-|
C#:-----------------------------------------------------------------|

01:02 - Chorus
D#:----------------------\------ /
A#:----------------------------- / \
F#:-4----7----12----9----  \ x 2 /
C#:-4-x8-7-x8-12-x8-9-x8- ------ /
G#:-2----5----10----7----------- /
C#:----------------------------- /

01:18 - Post-chorus
D#:--------------------------------|
A#:--------------------------------|
F#:--------------------------------|
C#:-----4---5---2---4---5---2---4*-|
G#:-2-2---2---2---2---2---2---2----|
C#:--------------------------------|

D#:--------------------------------|
A#:--------------------------------|
F#:--------------------------------|
C#:-------------5-------2---4-5-4*-|
G#:-----7---9-----5----------------|
C#:-5-5---5---5-----2-2---2--------|

01:26
D#:-------------------------------------|
A#:-------------------------------------|
F#:-------------------------------------|
C#:-9-------9---5------5---2------7-7-7-|
G#:-9-------9---5------5---2------7-7-7-|
C#:-9-9-x13-9-9-5-5-x5-5-5-2-2-x5-7-7-7-|

D#:-------------------------------------|
A#:-------------------------------------|
F#:-------------------------------------|
C#:-9-------9---2------2---7------7-7-7-|
G#:-9-------9---2------2---7------7-7-7-|
C#:-9-9-x13-9-9-2-2-x5-2-2-7-7-x5-7-7-7-|

D#:-----------------------------------|
A#:-----------------------------------|
F#:-----------------------------------|
C#:-9-------9---5------5---2------2---|
G#:-9-------9---5------5---2------2---|
C#:-9-9-x13-9-9-5-5-x5-5-5-2-2-x5-2-2-|

01:49 - Pre-chorus
D#:-----------------------------------------------------------------|
A#:-----------------------------------------------------------------|
F#:-7-----------7---6-----------6---5-----------5---5-5-5-5-5-5-5-5-|
C#:-7-----------7---6-----------6---5-----------5---5-5-5-5-5-5-5-5-|
G#:-5-5-5-5-5-5-5-5-4-4-4-4-4-4-4-4-3-3-3-3-3-3-3-3-3-3-3-3-3-3-3-3-|
C#:-----------------------------------------------------------------|

01:57 - Chorus
D#:----------------------\------ /
A#:----------------------------- / \
F#:-4----7----12----9----  \ x 2 /
C#:-4-x8-7-x8-12-x8-9-x8- ------ /
G#:-2----5----10----7----------- /
C#:----------------------------- /

02:12 - Post-chorus
D#:--------------------------------|
A#:--------------------------------|
F#:--------------------------------|
C#:-----4---5---2---4---5---2---4*-|
G#:-2-2---2---2---2---2---2---2----|
C#:--------------------------------|

D#:--------------------------------|
A#:--------------------------------|
F#:--------------------------------|
C#:-------------5------------------|
G#:-----7---9-----5----------------|
C#:-5-5---5---5-----2--------------|

02:20 - SOlo
D#:-----------------------------|
A#:-----------------------------|
F#:-7-6-7-6-7-6-7-6-7-6-7-6-----|
C#:-------------------------7---|
G#:---------------------------9-|
C#:-----------------------------|
   |   play calm   | play hard  |

D#:------------------------7-10-14-12-|
A#:------------7-10-8--8-7------------|
F#:----------7------------------------|
C#:--------9--------------------------|
G#:-9-9-10----------------------------|
C#:-----------------------------------|


D#:----------17-------------------------------------------------12-|
A#:-14h15p14----17-15-14h15p14-------12^14-12^14-12^14^12-10-12----|
F#:----------------------------14\11-------------------------------|
C#:----------------------------------------------------------------|
G#:----------------------------------------------------------------|
C#:----------------------------------------------------------------|


D#:-12-15-14-12---12----------------------------------------------------|
A#:-------------x----15-14-12-------------------------------------------|
F#:---------------------------14-12-11-------14^16-14^16-14^16^14-12-14-|
C#:------------------------------------14-12----------------------------|
G#:---------------------------------------------------------------------|
C#:---------------------------------------------------------------------|

Hammer on / pull offs from here (because of this, the solo is in C#, not D
D#:-----------------------------------------------------------------|
A#:-7-0-10-0-12-0-10-0-12-0-15-14---7-0-10-0-12-0-10-0-17-0-15-0-19-|
F#:-----------------------------------------------------------------|
C#:-----------------------------------------------------------------|
G#:-----------------------------------------------------------------|
C#:-----------------------------------------------------------------|


D#:--------------------------------------------------------------19-|
A#:-8-0-10-0-12-0-10-0-12-0-15-14---17-0-19-0-20-0-19-0-20--0-22----|
F#:-----------------------------------------------------------------|
C#:-----------------------------------------------------------------|
G#:-----------------------------------------------------------------|
C#:-----------------------------------------------------------------|

Tremelopicking here
D#:-22\\\10--17\\\5-----------------|
A#:------------------17\\\5---------|
F#:--------------------------16\\\4-|
C#:---------------------------------|
G#:---------------------------------|
C#:---------------------------------|

I honestly can't figure out what Oz is playing here, but it starts and ends with

this:
D#:---------------------12^14^12-10-|
A#:---------------------------------|
F#:-"11-9-12-9"---------------------|
C#:---------------------------------|
G#:---------------------------------|
C#:---------------------------------|

Bass solo at 02:51, and then
03:07 - Chorus
D#:----------------------\
A#:---------------------- \
F#:-4----7----12----9----  \ x 2
C#:-4-x8-7-x8-12-x8-9-x8-  /
G#:-2----5----10----7---- /
C#:----------------------/

03:23 - Post-chorus
D#:-------------------------------- \
A#:--------------------------------  \
F#:--------------------------------   \
C#:-----4---5---2---4---5---2---4*-    \
G#:-2-2---2---2---2---2---2---2----     \
C#:--------------------------------      \
                                          | x 4
D#:--------------------------------      /
A#:--------------------------------     /
F#:--------------------------------    /
C#:-------------5-------2---4-5-4*-   /
G#:-----7---9-----5----------------  /
C#:-5-5---5---5-----2-2---2-------- /


Hope you enjoyed it..

Symbolmeaning:
* = pinch harmonic
/ and \ = slides
x5 = play the last note/chord 5 times
H/P = Hammeron/pulloff
^ = bend
10^12^10 = bend and go back
Tap to rate this tab
 
# A B C D E F G H I J K L M N O P Q R S T U V W X Y Z