Stryper - More Than A Man tab

More than a man
Stryper tab

Tuning-D#, G#, C#, F#, A#, D#
Intro Guitar 1
E|--------------------|--------------------------------|
B|--------------------|-----------10-9-7---9-7---------|
G|-6-6-6-6--------2-4-|---------9--------9-----9-7-6---|
D|-4-4-4-4--0-2-0-----|-7-7-7-7----------------------7-|     
A|--------------------|-5-5-5-5------------------------|                        
E|--------------------|--------------------------------|
Guitar 2  |-----------|  |---------------------------------|
Harmonies |-------6-7-|  |---14-12-------12----------------|
   ->     |-4-6-4-----|  |13-------14-13----14-13-11-------|
          |-----------|  |---------------------------14-12-|
          |-----------|  |---------------------------------|


Intro PT-2 Guitar 1  |Both Guitar Play| 
E|-------------------|-------------------------------|
B|---------------2-4-|-------------------------------|
G|---------0-2-0-----|-------------------------------|
D|-9-9-9-9-----------|-7--11-9--6--7--6--4----2------|
A|-7-7-7-7-----------|-5--9--7--4--5--4--2----0----2-|
E|-------------------|-----------------------------0-|
Guitar 2 |-----------|
Harmonies|-------6-7-|
   ->    |-4-6-4-----|
         |-----------|
         |-----------|
         |-----------|

Verse-1 PT 2
E|------------------------------------|
B|------------------------------------|
G|------------------------------------|
D|------------------------------------|
A|---------4-----------------4--------|
E|-0-2-2-0-2--0-2-0--0-2-2-0-2--0-2-0-|2x

Interlude Guitar 1     |  [Guitar 2 Harmony] |
E|---------------------|---------------------|-------------|
B|---------------------|---------------------|-------------|
G|---------------------|-6-----4-----2-------|-------------|
D|-7-----6-----4-------|----4-----2-----0--3-|----7----9---|
A|----5-----4-----2--4-|---------------------|----5----7---|
E|---------------------|---------------------|-------------|
 


[Guitar 1]
E|-----------------------------------------------------|----
B|-------14--------------12------------10--------------|
G|-11-11----11-[2x]--9-9----9-[2x]-7-7----7--7-7-9-7-6-|
D|-----------------------------------------------------|
A|-----------------------------------------------------|
E|-----------------------------------------------------|
[Guitar 2 Harmonies]
E|------------------------------------------------|
B|-------17----------------17---------------14----|
G|-14-14----14-[2x]--13-13----13-[2x]-11-11----11-|
D|------------------------------------------------|
A|------------------------------------------------|
E|------------------------------------------------|
 |----------------| Both|--------------|
 |----------------| Play|--------------|
 |-11-11-13-11-10-|  -> |--------------|
 |----------------|     |---7------9---|
 |----------------|     |---5------7---|
 |----------------|     |--------------|

[Repeat Verse 1 PT 1]

Verse 1 Pt 2
E|--------------------------------------|
B|--------------------------------------|
G|--------------------------------------|
D|---------4-----------------4----------|
A|-0-2-2-0-2--0-2-0--0-2-2-0-2--0-2-0---|
E|--------------------------------------|1x

Verse 1 Pt 3
E|-------------------------------------------------|
B|-------------------------------------------------|
G|---------4-----------------4---------------------|
D|-0-2-2-0-2--0-2-0--0-2-2-0-2--0-2-0----2---------|
A|---------------------------------------0---------|
E|-----------------------------------------4-0-0-2-|1x

[Repeat Verse 1 PT 1 and 2]

[Bridge]    |[Chorus] Both Guitars                  |
E|----------|---------------------------------------|
B|----------|---------------------------------------|
G|-4--------|---------------------------------------|
D|-2--7--9--|-2-6-7-9-11-9-7-9-2-6-7-9-11-7-9-6-7-9-|
A|----5--7--|-0-4-5-7-9--7-5-7-0-4-5-7-9--5-7-4-5-7-|
E|----------|---------------------------------------|
[Repeat Verse 1 PT 1, PT 2, & PT 3]

[Repeat Verse 1 PT 1, PT 2, & PT 3]

[Repeat Bridge]

[Repeat Chorus]

Tap to rate this tab
 
# A B C D E F G H I J K L M N O P Q R S T U V W X Y Z