Song name
# A B C D E F G H I J K L M N O P Q R S T U V W X Y Z

Stu Larsen - Swerve tab

Stu Larsen's website:

http://www.myspace.com/stularsen


This is a tab for the song 'Swerve', by Stu Larsen & Lydia Cole.
I made the tab, and you can find the song at iTunes, www.myspace.com/stularsen, or 
a live version of it here:
http://www.youtube.com/watch?v=9FetR5Cg-cU&fmt=18

If you have any questions, email me at batmanalight@gmail.com. Enjoy!

Tuning:
EADGG#E

Verse:
Capo 7th (I play on 5th)
024000    202000    424000    547000
Bridge 1:
x02440
Chorus:
E 022100  E/F# 2x2100  G# 4x4400   A 5x76x0   
Bridge 2: G x05430
Intro & Verse
E-------------------------------------------------------------------------|
G#--------0--------0--------0---------------------------------------------|
G-------------------------------------------------------------------------|
D------4--------2--------4-------7---------------------------------|2x----|
A----2--------0--------2-------4------------------------------------------|
E--0--------2--------4-------5--------------------------------------------|

Verse

E-------------------------------------------------------------------------|
G#--------0--------0--------0---------------------------------------------|
G-------------------------------------------------------------------------|
D------4--------2--------4-------7---------------------------------|7x----|
A----2--------0--------2-------4------------------------------------------|
E--0--------2--------4-------5--------------------------------------------|

E-------------------------------------------------0----------------0--------|
G#--------0--------0--------0-------0---------4-------4--------4-------4----|
G-----------------------------------------------4---4---4--------4---4---4--|
D------4--------2--------4-------2---------2-----------------2--------------|
A----2--------0--------2-------0---------0-----------------0----------------|
E--0--------2--------4-------2----------------------------------------------|

Chorus: (Listen to song for strumming & timing) 
E 022100  E/F# 2x2100  G# 4x4400   A 5x76x0

Bridge 2 (Last line of each chorus):
 G x05430
Lyrics:

You take my hand
And you place it
In yours
As we're walking
For hours
In the rain
We've been forgotten
Like the flowers
In winter
As we search 
For a reason
To be one
Why do things change so fast

You 
You took my heart
Back to the start
So we could face one another
We 
Knew what we deserved
But somehow we swerved
And we missed each other
And we missed each other

How many question must there be
Without answers
Till we
Start wondering what we really have
We see perfection
But in truth
In the danger
What if this was our final melody
Why do change at all

You 
You took my heart
Back to the start
So we could face one another
We 
Knew what we deserved
But somehow we swerved
And we missed each other
And we missed each other
If I 
Could go back in time
I'd rewrite those lines
And we'd be together
But no
This story's been panned
We must wait till the end
Can we read it together
Can we read it together
Tap to rate this tab
# A B C D E F G H I J K L M N O P Q R S T U V W X Y Z