Song name
# A B C D E F G H I J K L M N O P Q R S T U V W X Y Z

Stu Larsen - Empty Streets tab

The tab for Empty Streets by Stu Larsen.
The chords for the rest of the song are pretty simple, just repeat
0    0    0    2
0    2    0    0
2    2    0    4
2    1    2    2
0    0    3    3
0    0    0    0

--------------------------0-------0---------------------------0-------0--|
------0-------0-----------------3---------0-------0-----------------3----|
-----2----------------1,2-----2---------2-----------------1,2-----2------|
----2-------2-------2-------0---------2---------2-------2-------0--------|
--0-------0-------2-----------------0---------0-------2------------------|
--------2-------0---------------------------2-------0--------------------|


-----------------------0-------0-----------------------0-------0---------|
-------0-------0-----3-------3---------0-------0-----3-------3-----------|
-----2-------1-----2-------2---------2-------1-----2-------2-------------|
---2-------2-----0-------4---------2-------2-----0-------4---------------|
-0-------0-----------------------0-------0-------------------------------|
-------------------------------------------------------------------------|
Tap to rate this tab
 
# A B C D E F G H I J K L M N O P Q R S T U V W X Y Z