Song name
# A B C D E F G H I J K L M N O P Q R S T U V W X Y Z

Stuart Davis - Dive tab

www.stuartdavis.com
#-----------------------------PLEASE NOTE-------------------------------------#
#This file is the author's own work and represents their interpretation       #
#of the song. You may only use this file for private study, scholarship, or   #
#research. Remember to view this file in Courier, or some other monospaced    #
#font.                    						      #
#-----------------------------------------------------------------------------#


Date: Sun, 17 Feb 2002 
Subject: d/davis_stuart/dive.tab
Dive by Stuart Davis "Live at the Fine Line"
Submitted by Del Kreiser



Drop D tuning
			                 		   Becoming mist again     
E |-x--x----------------x--x----------------x--x------------------------------|
B |-x--x----------------x--x----------------x--x------------------------------|
G |-x--x----------------x--x----------------x--x------------------------------|
D |-x--x------00000-----x--x------00000-----x--x------00000-------------------|
A |-x--x------00000-----x--x------00000-----x--x------00000-------------------|
D |-x--x------00000-----x--x------00000-----x--x------00000-------------------|

	the body is a drop	water never ends      the body is a drop
E |---------------------------------------------------------------------------|
B |---------------------------------------------------------------------------|
G |---------------------------------------------------------------------------|
D |00000-----------------00000-----------------99999-------------------55555--|
A |00000-----------------00000-----------------99999-------------------55555--|
D |00000-----------------00000-----------------99999-------------------55555--|

   water never ends      It isnít a mistake      the swimmer is asleep
E |---------------------------------------------------------------------------|
B |---------------------------------------------------------------------------|
G |---------------------------------------------------------------------------|
D |---------------00000-------------------00000----------------------00000----|
A |---------------00000-------------------00000----------------------00000----|
D |---------------00000-------------------00000----------------------00000----|

   water is awake      the swimmer is asleep      water is awake          It 
E |-----------------------------------------------------------------0---------|
B |--------------------------------------------------------------3--3--3------|
G |--------------------------------------------------------------2-----2------|
D |-------------99999----------------------55555-----------------0-----0------|
A |-------------99999----------------------55555------------------------------|
D |-------------99999----------------------55555------------------------------|

   isnít a mistake    becoming mist again           water is a friend
E |--------------0--------------------------0---------------------------------|
B |------3----2--2--2--------2-----------3--3--3-----------3------------------|
G |------2----2-----2--------2-----------0--0--0-----------0------------------|
D |------0----0-----0--------0-----------4-----4-----------4---7-77-77-77-----|
A |------------------------------------------------------------7-77-77-77-----|
D |------------------------------------------------------------7-77-77-77-----|

   Under this wave    over this soul    losing my arms    nothing to hold
E |---------------------------------------------------------------------------|
B |---------------------------------------------------------------------------|
G |---------------------------------------------------------------------------|
D |5---x---5-5----5---5---x---5-5---5---0---x---0-0---0---9----x---9-9---9----|
A |5---x---5-5----5---5---x---5-5---5---0---x---0-0---0---9----x---9-9---9----|
D |5---x---5-5----5---5---x---5-5---5---0---x---0-0---0---9----x---9-9---9----|

   Nowhere to swim    ready to drown    Longing to dive   love pulls me down
E |---------------------------------------------------------------------------|
B |---------------------------------------------------------------------------|
G |---------------------------------------------------------------------------|
D |5---x---5-5----5---5---x---5-5---5---0---x---0-0---0---9----x---9-9---9---7|
A |5---x---5-5----5---5---x---5-5---5---0---x---0-0---0---9----x---9-9---9---7|
D |5---x---5-5----5---5---x---5-5---5---0---x---0-0---0---9----x---9-9---9---7|

   Where the water is awake     Where the water is alive    
E |---------------------------------------------------------------------------|
B |---------------------------------------------------------------------------|
G |---------------------------------------------------------------------------|
D |----------5--------0-------------------9--------7--------------------------|
A |----------5--------0-------------------9--------7--------------------------|
D |----------5--------0-------------------9--------7--------------------------|

   Where the water is awake     Where the water is alive    Dive
E |---------------------------------------------------------------------------|
B |---------------------------------------------------------------------------|
G |---------------------------------------------------------------------------|
D |----------5--------0-------------------9--------7--------5-----------------|
A |----------5--------0-------------------9--------7--------5-----------------|
D |----------5--------0-------------------9--------7--------5-----------------|


Nothing here to hold
an island in the head
water in the soul
an island in the head
water in the soul

Something will survive
let the body melt
water is alive
let the body melt
water is alive

Something will survive
nothing here to hold
let the body fold

(Refrain)

        Now I dive      into this mystery    into this place  that has no 
E |--0-------------0----------------0--------------------0--------------------|
B |3-3-3---------2-2-2------------3-3-3---------------------------------------|
G |2---2---------2---2------------0---0--------------------2------------------|
D |0---0---------0---0------------4---4--------------------0------------------|
A |----------------------------------------------------4----------------------|
D |---------------------------------------------------------------------------|

   history    that has no face   where everything but water   will be erased   
E |--0----------------------0---------------------------0---------------0-----|
B |3-3-3------------------2-2-2-----------------------3-3-3-------------------|
G |2---2------------------2---2-----------------------0---0---------------2---|
D |0---0------------------0---0-----------------------4---4---------------0---|
A |-------------------------------------------------------------------4-------|
D |0--------------------------------------------------------------------------|

   I dive    Where the water is awake    Where the water is alive 
E |---------------------------------------------------------------------------|
B |---------------------------------------------------------------------------|
G |---------------------------------------------------------------------------|
D |--5----------------------------------x----------9--------7-----------------|
A |--5----------------------------------x----------9--------7-----------------|
D |--5----------------------------------x----------9--------7-----------------|


   Where the water is awake     Where the water is alive    Dive
E |---------------------------------------------------------------------------|
B |---------------------------------------------------------------------------|
G |---------------------------------------------------------------------------|
D |----------5--------0-------------------9--------7--------5-----------------|
A |----------5--------0-------------------9--------7--------5-----------------|
D |----------5--------0-------------------9--------7--------5-----------------|


Transcriber Notes:

I tabbed this from Stu's Live at the Fine Line show, which can be found on the 
Dream Usher Website. Stu uses a dropped D tuning on the sixth string. This is 
a very percussive version of Dive, so make use of muting (represented by an
"x") in between the chords. For the chorus and outro part, "where the water is
awake..." i didn't tab out all the strums so make sure that you strum in those
sections. Peace, Del.
Tap to rate this tab
 
# A B C D E F G H I J K L M N O P Q R S T U V W X Y Z