Song name
# A B C D E F G H I J K L M N O P Q R S T U V W X Y Z

Stuart Davis - Practice Dying tab

#-----------------------------PLEASE NOTE-------------------------------------#
#This file is the author's own work and represents their interpretation       #
#of the song. You may only use this file for private study, scholarship, or   #
#research. Remember to view this file in Courier, or some other monospaced    #
#font.                    						      #
#-----------------------------------------------------------------------------#


Date: Fri, 15 Feb 2002 
Subject: d/davis_stuart/practice_dying.tab
Practice Dying by Stuart Davis
Submitted by Del Kreiser


Verse 1

                       				      Get high on ether when 
E |---------------------------------------------------------------------------|
B |---------------------------------------------------------------------------|
G |-------7-77--6-66---------------7-77--6-66---------------------------------|
D |-7-77--7-77--7-77--6-66---7-77--7-77--7-77--6-66---------------7-----------|
A |-7-77--5-55--5-55--7-77---7-77--5-55--5-55--7-77---7---7-------4-----------|
E |-5-55--5-55--5-55--5-55---5-55--5-55--5-55--5-55---5---4-------------------|

   there's no one in the house      Pretend it's the big one at the moment you 
E |-----------------------------------------------------------------2---------|
B |--------------------------------------------------2--------------3---------|
G |--------------------------------1-----------------2--------------2---------|
D |--------7-------------77--7-77--2-----------------2--------------0---------|
A |--------5-------------77--7-77--2-----------------0------------------------|
E |----------------------55--5-55--0------------------------------------------|

   pass out   It's just rehearsal, but it's comforting somehow
E |-------------------------------------------------------------------2-------|
B |-------------------------------------------------------------------3-------|
G |-----2-----7-----------------------------6-------------------------2-------|
D |-----2-----7-----------------------------7-------------------------0-------|
A |-----1-----5-----------------------------7---------------------------------|
E |-----0-----------------------------------5---------------------------------|

   To practice dying now
E |---------------------------------------------------------------------------|
B |---------------------------------------------------------------------------|
G |---1--------------------7-77--6-66-----------------------------------------|
D |---2--------------7-77--7-77--7-77--6-66-----------------------------------|
A |---2--------------7-77--5-55--5-55--7-77-----------------------------------|
E |---0--------------5-55--5-55--5-55--5-55-----------------------------------|


(Verse 2)

Chorus 

   Don't feel stupid, we're all scared   No one wants to burn in hell
E |---------------------------------------------------------------------------|
B |---------------------------------------------------------------------------|
G |------1------------------1---------------1------------1-------------1------|
D |------2----------7-------2----------7----2---------7--2-------------2------|
A |------2----------7-------2----------7----2---------7--2-------------2------|
E |------0----------5-------0----------5----0---------5--0-------------0------|

   There's still time to get prepared    Start out now and finish well
E |---------------------------------------------------------------------------|
B |---------------------------------------------------------------------------|
G |--------1----------------1------------------1-----------1-----------1------|
D |--------2----------7-----2----------7-------2-------7---2-----------2------|
A |--------2----------7-----2----------7-------2-------7---2-----------2------|
E |--------0----------5-----0----------5-------0-------5---0-----------0------|

(Verse 2)
Hang out in funeral homes and make an honest bid
Lay in your casket, let them close the lid
Abra cadaver roll your eyes back in your head
Practice being dead

(Verse 3)
Try painting tunnels on the ceiling in your room
Imagine your birth backwards with a bigger, better womb
Take little trips out of your body now and then 
And if the rapture comes maybe you'll ascend

You know the saying, "once you learn to ride a bike..."
Well, that's what dying's like

(refrain)

(Verse 4)
Get high on ether when there's no one in the house
Pretend it's the big one at the moment you pass out
It's just rehearsal, but that's all that life allows
But you practice dying
Cause you're almost dead
Practice dying now


Transcriber Notes:

I tabbed this out using the 16 Nudes version of Practice Dying. Listen to the song
to get the feel for the rhythm. The chorus is a little tricky and I think the
chords are correct. If not, post an update. ;) Peace, Del.
Tap to rate this tab
 
# A B C D E F G H I J K L M N O P Q R S T U V W X Y Z