Stuart Davis - Fall Awake tab

#-----------------------------PLEASE NOTE-------------------------------------#
#This file is the author's own work and represents their interpretation       #
#of the song. You may only use this file for private study, scholarship, or   #
#research. Remember to view this file in Courier, or some other monospaced    #
#font.                    						      #
#-----------------------------------------------------------------------------#


Date: Sunday, January 12, 2003
Subject: d/davis_stuart/fall_awake.tab
Fall Awake by Stuart Davis from Nomen Est Numen
Submitted by Del Kreiser

Tuning: DGDGGD 1/2 step down

Main Rhthym

D |-0-0-0---0-0-0---0-0-0-0--0-0-0-0-0---0-0-0---0-0-0-0--0-0-0-0-0---0-0-0---|
G |-5-5-4p0-0-0-0h2-2-2-2/4--0-0-5-5-4p0-0-0-0h2-2-2-2/7--0-0-5-5-4p0-0-0-0h2-|
G |-5-5-4p0-0-0-0h2-2-2-2/4--0-0-5-5-4p0-0-0-0h2-2-2-2/7--0-0-5-5-4p0-0-0-0h2-|
D |-0-0-0---0-0-0---0-0-0-0--0-0-0-0-0---0-0-0---0-0-0-0--0-0-0-0-0---0-0-0---|
G |-0-0-0---0-0-0---0-0-0-0--0-0-0-0-0---0-0-0h2-2-2-2/7--0-0-0-0-0---0-0-0---|
D |---------------------------------------------------------------------------|

D |-0-0-0-0--0-0-0-0-0---0-0-0---0-0-0--|
G |-2-2-2/4--0-0-5-5-4p0-0-0-0h2-2-2-0--|
G |-2-2-2/4--0-0-5-5-4p0-0-0-0h2-2-2-0--|
D |-0-0-0-0--0-0-0-0-0---0-0-0---0-0-0--|
G |-0-0-0-0--0-0-0-0-0---0-0-0h2-2-2-0--|
D |-------------------------------------|

Main Rhthym (muted)

I was a curious boy with a wandering mind
on a hungry search undefined
in a rigid school full of concrete thought,
a structured day and all that brought

Guitar Fill 1

    Whoa..
D |-12-12-0--0-0-0---0-0-0-0--0-0-0-0-0--0-0-0-0-0-0-0--|
G |--0--0-0--0-0-0h2-2-2-2/4--0-0-7-7-0--0-0-0h2-2-2-0--|
G |-12-12-0--0-0-0h2-2-2-2/4--0-0-0-0-0--0-0-0h2-2-2-0--|
D |--0--0-0--0-0-0---0-0-0-0--0-0-7-7-0--0-0-0-0-0-0-0--|
G |--0--0-0--0-0-0---0-0-0-0--0-0-0-0-0--0-0-0h2-2-2-0--|
D |-----------------------------------------------------|

Main Rhthym (muted)

Logic ground in repeatable facts
my big energy faded back
They gave me far less than they stole
they packed my head and they drained my soul

Guitar Fill 2

D |-0-0-0-0-0---0-0-0---0-0-0--|
G |-0-0-5-5-4p0-0-0-0h2-2-2-0--|
G |-0-0-5-5-4p0-0-0-0h2-2-2-0--|
D |-0-0-0-0-0---0-0-0---0-0-0--|
G |-0-0-0-0-0---0-0-0h2-2-2-0--|
D |----------------------------|

Chorus

    So I learned to sleep in a distant stare out beyond, unaware
D |---------------------------------------------------------------------------|
G |---------------------------------------------------------------------------|
G |---------------------------------------------------------------------------|
D |--------5---------------------4-----------------5-------4------------------|
G |--------4---------------------2-----------------4-------2------------------|
D |------2-2-------------------0-0---------------2-2-----0-0------------------|


    of a clear internal path I'd take if I'd close my eyes and fall awake 
D |---------------------------------------------------------------------------|
G |------------------------------------------2----2---2-----------------------|
G |------0----0----0----0h4--0----0----0-----2----2---2-----------------------|
D |------0----0----0----0----0----0----0-----0----0---0-----------------------|
G |------5----5----5----5----5----5----5-----2----2---2-----------------------|
D |------5----5----5----5----5----5----5-----0----0---0-----------------------|

Main Rhthym (muted)

It was an instant lift, my mind grew light
a lucid dream of a graceful flight
Just one push and I learned to fall
into the arms of the energy that voiced my call

Guitar Fill 1 (2x)

Main Rhthym (muted)

Now each dream is an epitome
a beautiful dream of a permanent home
I'm a timeless entity cloaked in skin,
the eye of the universe turning in

Guitar Fill 2

Main Rhthym (muted)

And it's all between my ears
I know my way to a magic sphere
A clear internal path I take
when I close my eyes and fall awake

(Last verse Acapella with some open notes)

It's a world too dense with material toys
and signals laced with a lot of white noise
But there's a place in me that scientists
can't explain so they just dismiss...


=============================
Alternate Kenny Loggins Verse
=============================

get pissed, and resist, I summon, Kenny Loggins. You can't see it right now, 
but the entire balcony is filled with Kenny Loggins.

D |--------------------------------------|
G |--------------------------------------|
G |--------------------------------------|
D |----00-00----00-00----00-00----00-00--|
G |----00-00----00-00----00-00----00-00--|
D |-4h5------4h5------4h5------4h5-------|

    Meditating so hard, slack washing my car, I'm feeling something like, 
D |---------------------------------------------------------------------------|
G |---------------------------------------------------------------------------|
G |---------------------------------------------4---4---4---4-----------------|
D |----00-00----00-00----00-00----00-00---------0---0---0---0-----------------|
G |----00-00----00-00----00-00----00-00---------4---4---4---4-----------------|
D |-4h5------4h5------4h5------4h5------------0-------------------------------|

    I might be falling awake.          Everybody fall awake,       kick off  
D |---------------------------------------------------------------------------|
G |--------------------2-2-2-2-2-2-2-2----------------------------------------|
G |---6---6---6---6----2-2-2-2-2-2-2-2----------------0-00-5-0-00--5----5-----|
D |---0---0---0---0----0-0-0-0-0-0-0-0----------------0-00-5-0-00--5----5-----|
G |---6---6---6---6----2-2-2-2-2-2-2-2----------------0-00-5-0-00--5----5-----|
D |-0-------------------------------------------------5-55---5-55-------------|

    your big headache. Oh,  my lord, come on, come on let's go.    Awake,
D |---------------------------------------------------------------------------|
G |---------------------------------------------------------------------------|
G |-5----5---0-00------0-00-5-0-00---5--------5-------5-----0-00---0-00-------|
D |-5----5---0-00------0-00-5-0-00---5--------5-------5-----0-00---0-00-------|
G |-5----5---0-00------0-00-5-0-00---5--------5-------5-----0-00---0-00-------|
D |----------5-55------5-55---5-55--------------------------5-55---5-55-------|

    fall awake, everybody,  everybody fall...
D |--------------------------------------------|
G |--------------------------------------------|
G |-5----0-00----------------------------------|
D |-5----0-00---5---5---5---5---5---5----------|
G |-5----0-00---5---5---5---5---5---5----------|
D |------5-55---3---3---3---3---3---3----------|

Main Rhythm 1x

D |-<12>-|
G |-<12>-|
G |-<12>-|
D |-<12>-|
G |-<12>-|
D |-<12>-|

===================
Transcriber's Notes
===================

Mute the main rhythm during the verses. If you opt to not play the outro
Kenny Loggins Cut Loose tribute, you can either fade out with the following
Kenny Loggins rhythm (just like the album) or you play the Main Rhythm once 
and then end the song with harmonics at the 12th fret. 
Tap to rate this tab
 
# A B C D E F G H I J K L M N O P Q R S T U V W X Y Z