Stuart Davis - Kaleidescope tab

#-----------------------------PLEASE NOTE-------------------------------------#
#This file is the author's own work and represents their interpretation       #
#of the song. You may only use this file for private study, scholarship, or   #
#research. Remember to view this file in Courier, or some other monospaced    #
#font.                    						      #
#-----------------------------------------------------------------------------#


Date: Saturday, November 16, 2002 
Subject: d/davis_stuart/kaleidoscope.tab
Kaleidoscope by Stuart Davis from The Fine Line, Minneapolis, MN 06/29/01
Submitted by Del Kreiser


Tuning: 1/2 step down   


   Intro (2x)
E |-3-3-3-3--3-3-3-3--5-5-5-5------------3-3-3-3--3-3-3-3--5-5-5-5------------|
B |-6-6-6-6--3-3-3-3--5h6-6-6--5-5-5-5---6-6-6-6--3-3-3-3--5h6-6-6--5-5-5-5---|
G |-5-5-5-5--5-5-5-5--7-7-7-7--5-5-5-5---5-5-5-5--5-5-5-5--7-7-7-7--5-5-5-5---|
D |-3-3-3-3--5-5-5-5--7-7-7-7--7-7-7-7---3-3-3-3--5-5-5-5--7-7-7-7--7-7-7-7---|
A |-3-3-3-3--3-3-3-3--5-5-5-5--7-7-7-7---3-3-3-3--3-3-3-3--5-5-5-5--7-7-7-7---|
E |----------3-3-3-3--5-5-5-5--5-5-5-5------------3-3-3-3--5-5-5-5--5-5-5-5---|


    A silhouette,                        I focus out
E |-3-3-3-3--3-3-3-3--5-5-5-5------------3-3-3-3--3-3-3-3--5-5-5-5------------|
B |-6-6-6-6--3-3-3-3--5h6-6-6--5-5-5-5---6-6-6-6--3-3-3-3--5h6-6-6--5-5-5-5---|
G |-5-5-5-5--5-5-5-5--7-7-7-7--5-5-5-5---5-5-5-5--5-5-5-5--7-7-7-7--5-5-5-5---|
D |-3-3-3-3--5-5-5-5--7-7-7-7--7-7-7-7---3-3-3-3--5-5-5-5--7-7-7-7--7-7-7-7---|
A |-3-3-3-3--3-3-3-3--5-5-5-5--7-7-7-7---3-3-3-3--3-3-3-3--5-5-5-5--7-7-7-7---|
E |----------3-3-3-3--5-5-5-5--5-5-5-5------------3-3-3-3--5-5-5-5--5-5-5-5---|


    Delicate ear,     I am a shout
E |-3-3-3-3--3-3-3-3--5-5-5-5------------3-3-3-3--3-3-3-3--5-5-5-5------------|
B |-6-6-6-6--3-3-3-3--5h6-6-6--5-5-5-5---6-6-6-6--3-3-3-3--5h6-6-6------------|
G |-5-5-5-5--5-5-5-5--7-7-7-7--5-5-5-5---5-5-5-5--5-5-5-5--7-7-7-7--5-3-------|
D |-3-3-3-3--5-5-5-5--7-7-7-7--7-7-7-7---3-3-3-3--5-5-5-5--7-7-7-7--7-5-------|
A |-3-3-3-3--3-3-3-3--5-5-5-5--7-7-7-7---3-3-3-3--3-3-3-3--5-5-5-5--7-5-------|
E |----------3-3-3-3--5-5-5-5--5-5-5-5------------3-3-3-3--5-5-5-5--5-3-------|


    The cadence of a slow, deep breath  I never pause to fill my chest
E |-----1-----------------------3---------1-----------------------------------|
B |-----1-------1----3----------3---------1-----1--------3-------5------------|
G |-----2-------0----0----------0---------2-----0--------0-------0------------|
D |-----3-------2----2----------0---------3-----2--------2-------4------------|
A |-----3-------0----3----------2---------3-----0--------3-------5------------|
E |-----1-----------------------3---------1-----------------------------------|


    A patient dream that wants to rise  I will not close more than one eye
E |---1---------------------------3-----1-------------------------------------|
B |---1-------1----------3--------3-----1------1---3-------------------5------|
G |---2-------0----------0--------0-----2------0---0-------------------0------|
D |---3-------2----------2--------0-----3------2---2-------------------4------|
A |---3-------0----------3--------2-----3------0---3-------------------5------|
E |---1---------------------------3-----1-------------------------------------|


    Whatever rhythm I begin  there is another joining in
E |-0--------1--------0---------------3-------1-------------------------------|
B |-0--------1--------1---------------3-------1-------------------------------|
G |-4--------2--------0---------------0-------2-------------------------------|
D |-2--------3--------2---------------0-------3-------------------------------|
A |-0--------3--------3---------------2-------3-------------------------------|
E |-0--------1--------3---------------3-------1-------------------------------|

 
      a Dream that wants to rise  I will not close more than one eye
E |-0--------------1----------------3--------0----------1---------------------|
B |-0--------------1----------------3--------1----------1---------------------|
G |-4--------------2----------------0--------2----------2---------------------|
D |-2--------------3----------------0--------2----------3---------------------|
A |-0--------------3----------------2--------0----------3---------------------|
E |-0--------------1----------------3-------------------1---------------------|


    I will not close more than one eye
E |---3--------0----------0--------1---|
B |---3--------1----------0--------1---|
G |---0--------2----------0--------2---|
D |---0--------2----------2--------3---|
A |---2--------0----------2--------3---|
E |---3-------------------0--------1---|


Shadows pulse to draw the spark
an arm of fire feels for dark
Threads of light arrange to rope
frames combine kaleidoscope
Sleep decides it will unfold
but fear designs an awkward hold


Whatever rhythm I begin
there is another joining in
but Sleep cannot unfold
fear designs an awkward hold


E |-0--0-0-0-0-000---0--0-0---0-000-------------------------------------------|
B |-0--0-0-0-0-000---0--0-0-0-0-000-------------------------------------------|
G |10-101010-9-999--10-101010-9-999--9-9-7---2---4----------------------------|
D |10-101010-9-999--10-101010-9-999--9-9-7---3---5----------------------------|
A |-0--0-0-0-0-000---0--0-0-0-0-000--7-7-5---3---5----------------------------|
E |----------------------------------0-0-0---1---3----------------------------|


E |-0--0-0-0-0-000---0--0-0-0-0-000----------0-000-0--------------------------|
B |-0--0-0-0-0-000---0--0-0-0-0-000----------5-555-6--------------------------|
G |10-101010-9-999--10-101010-9-999--9-9-7---4-444-5--------------------------|
D |10-101010-9-999--10-101010-9-999--9-9-7---0-000-3--------------------------|
A |-0--0-0-0-0-000---0--0-0-0-0-000--7-7-5------------------------------------|
E |----------------------------------0-0-0------------------------------------|

 
   The patient Dream                           wants to rise
E |12-121212--10-101010--10-101010--13-131313--12-121212--10-101010--10-101010|
B |-9--9-9-9--10-101010--10-101010--10-101010---9--9-9-9--10-101010--10-101010|
G |-9--9-9-9--10-101010--12-121212--10-101010---9--9-9-9--10-101010--12-121212|
D |-----------10-101010--10-101010--10-101010-------------10-101010--10-101010|
A |---------------------------------------------------------------------------|
E |---------------------------------------------------------------------------|


               I will not close more than one eye
E |-13-131313--12-121212--10-101010--10-101010--13-131313---------------------|
B |-10-101010---9--9-9-9--10-101010--10-101010--10-101010---------------------|
G |-10-101010---9--9-9-9--10-101010--12-121212--10-101010---------------------|
D |-10-101010-------------10-101010--10-101010--10-101010---------------------|
A |---------------------------------------------------------------------------|
E |---------------------------------------------------------------------------|


E |12-121212--10-101010--10101010--13131313--|
B |-9--9-9-9--10-101010--10101010--10101010--|
G |-9--9-9-9--10-101010--12121212--10101010--|
D |-----------10-101010--10101010--10101010--|
A |------------------------------------------|
E |------------------------------------------|


    Sleep decides it will unfold      but fear designs an awkward hold
E |-1---------------------3---------------1-----------------------------------|
B |-1-----1----------3----3---------------1----1----------3-------5-----------|
G |-2-----0----------0----0---------------2----0----------0-------0-----------|
D |-3-----2----------2----0---------------3----2----------2-------4-----------|
A |-3-----0----------3----2---------------3----0----------3-------5-----------|
E |-1---------------------3---------------1-----------------------------------|


Whatever rhythm I begin
there is another joining in
there is another joining in
Whatever rhythm I begin
Tap to rate this tab
 
# A B C D E F G H I J K L M N O P Q R S T U V W X Y Z