Song name
# A B C D E F G H I J K L M N O P Q R S T U V W X Y Z

Stuart K Hine - How Great Thou Art tab

Help us improve GuitareTab! Take a short survey!
  Original Tab by Brody

How Great Thou Art
Stuart K. Hine


  All Verses (x2)
e|---------------------------------------------------------------------------|
B|--12-12-12-------12-12-12-14-14----14----14-14-14-12--------12-12----------|        
G|-----------13-------------------14---------------------13---------14-14-13-|
D|---------------------------------------------------------------------------|
A|---------------------------------------------------------------------------|
E|---------------------------------------------------------------------------|

  Chorus
e|-----------12~---------------------------------------------------|
B|--------13-------15-13----13----------13-13------------12--------|
G|--12-12----------------14----14-12----------14------10----14-12--|
D|-----------------------------------------------12----------------|
A|-----------------------------------------------------------------|
E|-----------------------------------------------------------------|

e|-----------12~--------------------------------------12-13--------|
B|--------13-------15-13----13----------13-12-13-15---------12-13--|
G|--12-12----------------14----14-12-------------------------------|
D|-----------------------------------------------------------------|
A|-----------------------------------------------------------------|
E|-----------------------------------------------------------------|
Related for How Great Thou Art tab