Song name
# A B C D E F G H I J K L M N O P Q R S T U V W X Y Z

Stuart Smith - Trouble In Paradise tab

-------------------------------------------------------------------------------
	Trouble in Paradise - by Stuart Smith's Heaven and Earth
-------------------------------------------------------------------------------
Tabbed by: Andy (yalaki)
Email: yalaki@hotmail.com

Official Website of Stuart Smith: http://www.stuartsmith.com/
Official Website of Heaven and Earth: http://www.heavenandearthband.com/


Great song from Stuart Smith's Heaven and Earth. Great fun to play!

I have tabbed all lead and all rhythm - I hope it doesn't get too confusing
(if it does feel free to email me and I'll try and help!)

Its in the key of C (if i remember my music theory correctly!)

Enjoy!


Tuning: Standard

******
Intro:
******

Guitar 1 (Lead):

e|--------------------|---------------------------------------|
B|o------------------o|---------------------------------------|
G|---7b9--9--7-5-7----|--7b9--9--7-5-7----7p5---5-----7b9~----|
D|-----------------7--|----------------7------7---7-5---------|
A|o------------------o|---------------------------------------|
E|--------------------|---------------------------------------|


e|-----------10-8-7--------|
B|---8b10-----------10~\x--|
G|-------------------------|
D|-------------------------|
A|-------------------------|
E|-------------------------|

e|-----------------------------------------------|
B|----13p10p8-13p10p8-7--------------------------|
G|----------------------9-8-7--------------------|
D|----------------------------10-7-10-7~\x-------|
A|-----------------------------------------------|
E|-----------------------------------------------|

      right hand tapping is an option here
e|----------------------------------------10~----|
B|----10h13p10p8h10h13p10p8h10h13p10p8p10--------|
G|-----------------------------------------------|
D|-----------------------------------------------|
A|-----------------------------------------------|
E|-----------------------------------------------|

e|-----------------------------------------------|
B|-----------------------------------------------|
G|-----------------------------------------------|
D|----12p10h12p10h12p10h12p10h12p10\x------------|
A|-----------------------------------------------|
E|-----------------------------------------------|


Guitar 2 (Rhythm):


Try this with your whammy bar if you have one (i dont).
e|----------|-----------------------|
B|o-10-\x--o|--10-\x----------------|
G|--9--\x---|--9--\x----------------|
D|--7--\x---|--7--\x----------2-----|
A|o--------o|-----------0-----2-----|
E|----------|--------------3--0-----|

                    listen to cd carefully for exact nuances here
e|---------------------------------------------------------------------------|
B|---------------------------------------------------------------------------|
G|-----------2---------------------------------------------------------------|
D|--2--------2---5-----7-----7-7-7-7-7-7-7-7----------2----------------------|
A|--0--0-3-5---x-5-x-x-5-----5-5-5-5-5-5-5-5----5-3-2-0----------------------|
E|---------------------------------------------------------------------------|
                           
e|---------------------------------------------------------------------------|
B|---------------------------------------------------------------------------|
G|-----------2---------------------------------------------------------------|
D|--2--------2---5-----7-----7-7-7-7-7-7-7-7----------2----------------------|
A|--0--0-3-5---x-5-x-x-5-----5-5-5-5-5-5-5-5----5-3-5-0----------------------|
E|---------------------------------------------------------------------------|

e|------------------|---------------------------|
B|o----------------o|---------------------3-----|
G|--2--2--------2---|--2--2-------2-------2-----|
D|--2--2--------2---|--2--2-------2-------0-----|
A|o-0--0--------0--o|--0--0-------0-------0-----|
E|--------3--0------|--------3--0----3--0-------|




********
Verse 1:
********

For one guitar except the 3rd line which is for two guitars.

"Polititions telling us that things will change...."

e|---------------------------------------------------------------------|
B|---------------------------------------------------------------------|
G|--2--------2----2--2-----------7--7-7-------5--7--7-7----------------|
D|--2--------2----2----5-4-2-4---7--7-7--x-x--5--7--7-7--x-x-x---------|
A|--0--3--5-------0--------------5--5-5--x-x--3--5--5-5--x-x-x--3-2----|
E|---------------------------------------------------------------------|


e|---------------------------------------------------------------------|
B|---------------------------------------------------------------------|
G|--2--------2----2--2-----------7--7-7-------5--7--7-7----------------|
D|--2--------2----2----5-4-2-4---7--7-7--x-x--5--7--7-7--x-x-x---------|
A|--0--3--5-------0--------------5--5-5--x-x--3--5--5-5--x-x-x---------|
E|---------------------------------------------------------------------|


e|--------------------------------------------------|
B|--------------------------------------------------|
G|--7-8-9----7-8-9----7-8-9----9----9-10-11-12------|
D|--7-8-9----7-8-9----7-8-9----9----9-10-11-12------|
A|--5-6-7----5-6-7----5-6-7----7----7-8--9--10------|
E|--------------------------------------------------|
 |(two guitars)
e|------------------------------------------------------------------------|
B|------------------------------------------------------------------------|
G|--7/8/9~--\x-7/8/9~-\x--7/8/9~-\x--9~--\x--x-10/11/12-----14~-------\x--|
D|------------------------------------------------------------------------|
A|------------------------------------------------------------------------|
E|------------------------------------------------------------------------|


*******
Chorus:
*******

"You better run, dont think twice, looks like we got trouble in paradise..."

e|---------------------------------------------------------------------------|
B|---------------------------------------------------------------------------|
G|-----------2---------------------------------------------------------------|
D|--2--------2---5-----7-----7-7-7-7-7-7-7-7----------2----------------------|
A|--0--0-3-5---x-5-x-x-5-----5-5-5-5-5-5-5-5----5-3-2-0----------------------|
E|---------------------------------------------------------------------------|

e|---------------------------------------------------------------------------|
B|---------------------------------------------------------------------------|
G|-----------2---------------------------------------------------------------|
D|--2--------2---5-----7-----7-7-7-7-7-7-7-7----------2----------------------|
A|--0--0-3-5---x-5-x-x-5-----5-5-5-5-5-5-5-5----5-3-2-0----------------------|
E|---------------------------------------------------------------------------|

e|------------------|---------------------------|
B|o----------------o|---------------------3-----|
G|--2--2--------2---|--2--2-------2-------2-----|
D|--2--2--------2---|--2--2-------2-------0-----|
A|o-0--0--------0--o|--0--0-------0-------0-----|
E|--------3--0------|--------3--0----3--0-------|


Lead Fill at end of chorus:

e|---------------------------------------------------------------------------|
B|---------------------------------------------------------------------------|
G|---12h14p12p9h12h14p12p9-14p12p9-12b14~----12b14-12-11-10-9----------------|
D|------------------------------------------------------------12-10----------|
A|------------------------------------------------------------------12-------|
E|---------------------------------------------------------------------------|

********
Verse 2:
********

"oh! Preachers and teachers tell us not to forget...."

e|---------------------------------------------------------------------|
B|---------------------------------------------------------------------|
G|--2--------2----2--2-----------7--7-7-------5--7--7-7----------------|
D|--2--------2----2----5-4-2-4---7--7-7--x-x--5--7--7-7--x-x-x---------|
A|--0--3--5-------0--------------5--5-5--x-x--3--5--5-5--x-x-x--3-2----|
E|---------------------------------------------------------------------|
 |(two guitars)
e|---------------------------------------------------------------------|
B|---------------------------------------------------------------------|
G|---------------------------------------------------------------------|
D|--------------------------------7-x-7--10p9p7-10p9p7-10p9p7--10--7~--|
A|---------------------------------------------------------------------|
E|---------------------------------------------------------------------|


e|---------------------------------------------------------------------|
B|---------------------------------------------------------------------|
G|--2--------2----2----------------------------------------------------|
D|--2--------2----2--------------7-----------pause---------------------|
A|--0--3--5-------0--0-2-0-3-0-4-5-------------------------------------|
E|---------------------------------------------------------------------|


                               * strike this E5 chord repeatedly
e|--------------------------------------------------|
B|--------------------------------------------------|
G|--7-8-9----7-8-9----7-8-9----9----9-10-11-12------|
D|--7-8-9----7-8-9----7-8-9----9----9-10-11-12------|
A|--5-6-7----5-6-7----5-6-7----7----7-8--9--10------|
E|--------------------------------------------------|
 |(two guitars)
e|------------------------------------------------------------------------|
e|------------------------------------------------------------------------|
B|------------------------------------------------------------------------|
G|--7/8/9~--\x-7/8/9~-\x--7/8/9~-\x--9~--\x--x-10/11/12-----14~-------\x--|
D|------------------------------------------------------------------------|
A|------------------------------------------------------------------------|
E|------------------------------------------------------------------------|


*******
Chorus:
*******

"You better run, dont think twice, looks like we got trouble in paradise..."

								repeat 3 times
e|---------------------------------------------------------------------------|
B|o-------------------------------------------------------------------------o|
G|-----------2---------------------------------------------------------------|
D|--2--------2---5-----7-----7-----7-7-7-7-7----------2---2--2-0-------------|
A|o-0--0-3-5---x-5-x-x-5-----5-----5-5-5-5-5----5-3-2-0---0--0-0------------o|
E|---------------------------------------------------------------------------|

e|---------------------------------------------------------------------------|
B|---------------------------------------------------------------------------|
G|-----------2---------------------------------------------------------------|
D|--2--------2---5-----7-----7-----7-7-7-7-7----------2----------------------|
A|--0--0-3-5---x-5-x-x-5-----5-----5-5-5-5-5----5-3-2-0----------------------|
E|---------------------------------------------------------------------------|

*******
Bridge:
*******

"I'm just trying to stay alive..."

e|----------------------------------|--------------------------------------|
B|----------------------------------|--------------------------------------|
G|--9---------------------------7---|------9--------------------7----------|
D|--9------------5------5-------7---|------9------5------5------7----------|
A|--7--------0-2-3--2-0-5---2-3-5---|------7--0-2-3--2-0-5--2-3-5----------|
E|----------------------3-----------|-8-10---------------3-----------------|

e|--------------------------------------------------------------|
B|--------------------------------9-----------------------------|
G|-----4------5------7------9-----7------5-----------7----------|
D|-----4------5------7------9-----5------5------5----7----------|
A|-5-3-2--0-2-3--2-3-5--3-5-7------------3--2-0-5----5----------|
E|----------------------------------------------3---------------|


******************
Guitar/Piano Duet:
******************

Rhythm Guitar:
								repeat 3 times
e|---------------------------------------------------------------------------|
B|o-------------------------------------------------------------------------o|
G|-----------2---------------------------------------------------------------|
D|--2--------2---5-----7-----7-7-7-7-7-7-7-7----------2---2--2-0-------------|
A|o-0--0-3-5---x-5-x-x-5-----5-5-5-5-5-5-5-5----5-3-2-0---0--0-0------------o|
E|---------------------------------------------------------------------------|

e|---------------------------------------------------------------------------|
B|---------------------------------------------------------------------------|
G|-----------2---------------------------------------------------------------|
D|--2--------2---5-----7-----7-7-7-7-7-7-7-7----------2----------------------|
A|--0--0-3-5---x-5-x-x-5-----5-5-5-5-5-5-5-5----5-3-2-0----------------------|
E|---------------------------------------------------------------------------|

e|--------------------------------------------------|
B|--------------------------------------------------|
G|--7-8-9----7-8-9----7-8-9----9----9-10-11-12------|
D|--7-8-9----7-8-9----7-8-9----9----9-10-11-12------|
A|--5-6-7----5-6-7----5-6-7----7----7-8--9--10------|
E|--------------------------------------------------|




Lead Guitar:


e|---------5--------5--------5--------5----------------|
B|-------5--------5--------5--------5----8b10----------|
G|---7b9------7b9------7b9------7b9--------------------|
D|-----------------------------------------------------|
A|-----------------------------------------------------|
E|-----------------------------------------------------|

e|-----------------------------------------------------|
B|---10h13p10p8-10h13p10p8-10-8-7-6+-5-----------------|
G|-------------------------------------7-5-------------|
D|-----------------------------------------7-----------|
A|-----------------------------------------------------|
E|-----------------------------------------------------|


Piano plays (not tabbed)


e|----------15--------15-------------------------------|
B|----15b17----15b17------15b17r15p13----13-15-13------|
G|------------------------------------14---------------|
D|-----------------------------------------------------|
A|-----------------------------------------------------|
E|-----------------------------------------------------|

e|---17--\x--19--\x--20b22-20-17-15-17-----------------|
B|-----------------------------------------------------|
G|-----------------------------------------------------|
D|-----------------------------------------------------|
A|-----------------------------------------------------|
E|-----------------------------------------------------|

Piano plays (not tabbed)

e|------------------------------------------------------------------------|
B|------------------------------------------------------------------------|
G|--7/8/9~--\x-7/8/9~-\x--7/8/9~-\x--9~--\x--x-10/11/12-----14~-------\x--|
D|------------------------------------------------------------------------|
A|------------------------------------------------------------------------|
E|------------------------------------------------------------------------|


*******
Chorus:
*******

"You better run, don't think twice, looks like we got trouble in paradise..."

                                                                Repeat 5 times
e|---------------------------------------------------------------------------|
B|o-------------------------------------------------------------------------o|
G|-----------2---------------------------------------------------------------|
D|--2--------2---5-----7-----7-7-7-7-7-7-7-7----------2------2-0-------------|
A|o-0--0-3-5---x-5-x-x-5-----5-5-5-5-5-5-5-5----5-3-2-0------0-0------------o|
E|---------------------------------------------------------------------------|

                                               rit.
e|---------------------------------------------------------------------------|
B|---------------------------------------------------------------------------|
G|-----------2-------------------------------------------------2-------------|
D|--2--------2---5-----7-----7-7-7-7-7-7-7-7-------------------2-------------|
A|--0--0-3-5---x-5-x-x-5-----5-5-5-5-5-5-5-5----5----3---------0-------------|
E|--------------------------------------------------------3------------------|

*******
Finale:
*******

"Oh baby we got trouble in paradise..."

Rhythm Guitar:

e|-----------------------------------------------------||
B|-----------------------------------------------------||
G|--2------6----7----8----9----------------------------||
D|--2------6----7----8----9----------5----7--\x--------||
A|--0------4----5----6----7----------5----7--\x--------||
E|-----------------------------------3----5--\x--------||


Lead Guitar:

e|--------10b12~--r10-p8-10p9h10p9h10p9h10p-10b12r10p9p8-------------------|
B|-----10------------------------------------------------10---8~b10~-------|
G|---9---------------------------------------------------------------------|
D|-------------------------------------------------------------------------|
A|-------------------------------------------------------------------------|
E|-------------------------------------------------------------------------|

e|-----8-9-10-11-12-13-14-15-16-b17------------------------------||
B|--10--------------------------------------10-\x----------------||
G|------------------------------------------9--\x----------------||
D|------------------------------------------7--\x----------------||
A|---------------------------------------------------------------||
E|---------------------------------------------------------------||


| /  slide up
| \  slide down
| h  hammer-on
| p  pull-off
| ~  vibrato
| +  harmonic
| x  Mute note
| b  Bend note
| r  Release bend
| pb Prebend note
===============================================================================
Tap to rate this tab
# A B C D E F G H I J K L M N O P Q R S T U V W X Y Z