Song name
# A B C D E F G H I J K L M N O P Q R S T U V W X Y Z

Stuart Smith - Its Gotta Be Love tab

Help us improve GuitareTab! Take a short survey!
-------------------------------------------------------------------------------
	It's Gotta be Love - by Stuart Smith's Heaven and Earth
-------------------------------------------------------------------------------
Tabbed by: Andy (yalaki)
Email: yalaki@hotmail.com

High tempo song from Stuart Smith's Heaven and Earth's first album.

All guitar parts have been tabbed. I'd expect some people would prefer to play
some parts slightly differently (ie on different strings) but I have tabbed it
how I play it.

Good luck and enjoy!



Tuning: Standard

******
Intro:
******

e|-----------------------|------------------------------------------|
B|-----------------------|------------------------------------------|
G|---7--------5------2---|---7-------5----2-------------------------|
D|---7--------5------2---|---7-------5----2-------------------------|
A|---5--------3------0---|---5-------3----0-----3p2p0-------0-------|
E|-----------------------|----------------------------3-0-3---------|

e|-----------------------|------------------------------------------|
B|-----------------------|------------------------------------------|
G|---7--------5------2---|---7-------5----2-------------------------|
D|---7--------5------2---|---7-------5----2----5-7---10-7-----------|
A|---5--------3------0---|---5-------3----0----5-7---10-7-----------|
E|-----------------------|---------------------3-5---8--5-----------|

********
Verse 1:
********

"Ooh you're driving me crazy, you're gonna drive me to drink..."

e|---------------------------------------------------|
B|--------------3--6---------------------------------|
G|--------------2--5---------------------------------|
D|--5--3--5-----0--3-----5--3--5---------------------|
A|--5--3--5--------------5--3--5---------------------|
E|--3--1--3--------------3--1--3---------------------|

e|---------------------------------------------------|
B|--------------3--6---------------------------------|
G|--------------2--5-----------------3--4------------|
D|--5--3--5-----0--3-----5--3--5-----3--4------------|
A|--5--3--5--------------5--3--5-----1--2------------|
E|--3--1--3--------------3--1--3---------------------|

"Well I don't know why I want you..."

			   you may consider play this fill on 
				two strings instead of one
e|---------------------------------------------------|
B|---------------------------------------------------|
G|-----5---------------------------------------------|
D|-----5-------3---------5------8p7p5-3-0-3-5--------|
A|-3-x-3-------3---------5---------------------------|
E|---------1-x-1-----3-x-3---------------------------|
   pm.     pm.       pm.

e|---------------------------------------------------|
B|---------------------------------------------------|
G|-----5-----------------------------3-5-------------|
D|-----5-------3---------5------3-5--3-5-------------|
A|-3-x-3-------3---------5------3-5--1-3-------------|
E|---------1-x-1-----3-x-3------1-3------------------|
   pm.     pm.       pm.
e|---------------------------------------------------|
B|---------------------------------------------------|
G|-----5---------------------------------------------|
D|-----5-------3---------5------8p7p5-3-0-3-5--------|
A|-3-x-3-------3---------5---------------------------|
E|---------1-x-1-----3-x-3---------------------------|
   pm.     pm.       pm.
e|--------------------------------|
B|--------------------------------|
G|----3---------------5-----------|
D|----3---------------5-----------|
A|----1-1-1-1-1-0-----3-----------|
E|----------------3-1-------------|


*******
Chorus:
*******

"Baby let's face it, you know it's a shame..."

e|-----------------------|------------------------------------------|
B|-----------------------|------------------------------------------|
G|---7--------5------2---|---7-------5----2-------------------------|
D|---7--------5------2---|---7-------5----2-------------------------|
A|---5--------3------0---|---5-------3----0-----3p2p0-------0-------|
E|-----------------------|----------------------------3-0-3---------|

e|-----------------------|------------------------------------------|
B|-----------------------|------------------------------------------|
G|---7--------5------2---|---7-------5----2-------------------------|
D|---7--------5------2---|---7-------5----2----5-7---10-7-----------|
A|---5--------3------0---|---5-------3----0----5-7---10-7-----------|
E|-----------------------|---------------------3-5---8--5-----------|

********
Verse 2:
********

"They say fire and ice makes a hell of a mix..."

e|---------------------------------------------------|
B|--------------3--6---------------------------------|
G|--------------2--5---------------------------------|
D|--5--3--5-----0--3-----5--3--5---------------------|
A|--5--3--5--------------5--3--5---------------------|
E|--3--1--3--------------3--1--3---------------------|

e|---------------------------------------------------|
B|--------------3--6---------------------------------|
G|--------------2--5-----------------3--4------------|
D|--5--3--5-----0--3-----5--3--5-----3--4------------|
A|--5--3--5--------------5--3--5-----1--2------------|
E|--3--1--3--------------3--1--3---------------------|

"Oh always getting on your nerves..."

e|---------------------------------------------------|
B|---------------------------------------------------|
G|-----5---------------------------------------------|
D|-----5-------3---------5------8p7p5-3-0-3-5--------|
A|-3-x-3-------3---------5---------------------------|
E|---------1-x-1-----3-x-3---------------------------|
   pm.     pm.       pm.
e|---------------------------------------------------|
B|---------------------------------------------------|
G|-----5-----------------------------3-5-------------|
D|-----5-------3---------5------3-5--3-5-------------|
A|-3-x-3-------3---------5------3-5--1-3-------------|
E|---------1-x-1-----3-x-3------1-3------------------|
   pm.     pm.       pm.
e|---------------------------------------------------|
B|---------------------------------------------------|
G|-----5---------------------------------------------|
D|-----5-------3---------5------8p7p5-3-0-3-5--------|
A|-3-x-3-------3---------5---------------------------|
E|---------1-x-1-----3-x-3---------------------------|
   pm.     pm.       pm.
e|--------------------------------|
B|--------------------------------|
G|----3---------------5-----------|
D|----3---------------5-----------|
A|----1-1-1-1-1-0-----3-3-3-3-3---|
E|----------------3-1-------------|

*******
Bridge:
*******

"I know love doesn't have a reason..."

e|------------------------------------------------|
B|-4-------6--6-6----4-------6--------------------|
G|-3---3---5--5-5----3---3---5---1-0--------------|
D|-1---3---3---------1---3---3-------3-1-0--------|
A|-----1-----------------1-----------------3------|
E|------------------------------------------------|

e|---------------------------------------------------------------------------|
B|-------------9--------------------------------------------------------------|
G|----8--10----8--8--10---8/10--8/10--8/10--8--10--------------------------|
D|-6--8--10----6--8--10---8/10--8/10--8/10--8--10--------------------------|
A|-6--6--8--------6--8----6/8---9/8---6/8---6--8------------------------------------------|
E|-4--------------------------------------------------------------------------|


*****
Solo:
*****

SOLO Guitar (Rhythm guitar part is tabbed after the solo part):

*To begin with bend as shown (5b7) and repeatedly strike the bent note,
*gradually releasing the bend to lower the pitch.
*Where you see "5b" bend up about 1/4 of a tone.
e|---------------------------------------------------------------------------|
B|---------------------------------------------------------------------------|
G|---5b7-7-7-7-7-7-7-6-6-6-6-6-5-5--5p3h5-5b7--5-3-5b-3-0--------------------|
D|---------------------------------------------------------------------------|
A|---------------------------------------------------------------------------|
E|---------------------------------------------------------------------------|

e|---------------------------------------------------------------------------|
B|---------------------------------------------------------------------------|
G|--0----------------------------------------------------------------------3-|
D|----3-0-----------------------------------------3--5-5p3p0-5p3p0-5p3h5p3---|
A|--------3-1-3-1---------------------1-3-1-3-5-5----------------------------|
E|--------------------------3-1-3-1-3----------------------------------------|
			    pm/.......................

e|---------3-------3-------3---------3---------------------------------------|
B|-------3-------3-------3---3-----3-----3-----------------------------------|
G|---5b7-----5b7-----5b7-------5b7---------x---------------------------------|
D|---------------------------------------------------------------------------|
A|---------------------------------------------------------------------------|
E|---------------------------------------------------------------------------|

e|---------------------------------------------------------------------------|
B|---13b15-13-11-13p11p8-13p11p8--11b13r11~----------------------------------|
G|---------------------------------------------------------------------------|
D|---------------------------------------------------------------------------|
A|---------------------------------------------------------------------------|
E|---------------------------------------------------------------------------|

"Well I don't know why I want you..."
"Sometimes I don't even care at all..."

e|---------------------------------------------------------------------------|
B|---------------------------------------------------------------------------|
G|------------------------12-15-12-------------------------------------------|
D|------------------12-15----------------------------------------------------|
A|---------------------------------------------------------------------------|
E|---------------------------------------------------------------------------|

"All you want to do is make me tease and taunt you..."

e|---------------------------------------------------------------------------|
B|---------------------------------------------------------------------------|
G|-------------15p14p12----------12------------------------------------------|
D|----------------------15-12-15---------------------------------------------|
A|---------------------------------------------------------------------------|
E|---------------------------------------------------------------------------|

"I'll still come running where you go..."




RHYTHM Guitar:
					Play 3 times
e|-------------------------------------------------|
B|o-----------------------------------------------o|
G|--------------2--5-----------------3-------------|
D|--5--3--5-----0--3-----5--3--5-----3-------------|
A|o-5--3--5-----0--3-----5--3--5-----1------------o|
E|--3--1--3--------------3--1--3-------------------|

e|-------------------------------------------------|
B|-------------------------------------------------|
G|--------------2--5-----------------3---4---------|
D|--5--3--5-----0--3-----5--3--5-----3---4---------|
A|--5--3--5-----0--3-----5--3--5-----1---2---------|
E|--3--1--3--------------3--1--3-------------------|





"Well I don't know why I want you..."

e|---------------------------------------------------|
B|---------------------------------------------------|
G|-----5---------------------------------------------|
D|-----5-------3---------5------8p7p5-3-0-3-5--------|
A|-3-x-3-------3---------5---------------------------|
E|---------1-x-1-----3-x-3---------------------------|
   pm.     pm.       pm.

e|---------------------------------------------------|
B|---------------------------------------------------|
G|-----5-----------------------------3-5-------------|
D|-----5-------3---------5------3-5--3-5-------------|
A|-3-x-3-------3---------5------3-5--1-3-------------|
E|---------1-x-1-----3-x-3------1-3------------------|
   pm.     pm.       pm.
e|---------------------------------------------------|
B|---------------------------------------------------|
G|-----5---------------------------------------------|
D|-----5-------3---------5------8p7p5-3-0-3-5--------|
A|-3-x-3-------3---------5---------------------------|
E|---------1-x-1-----3-x-3---------------------------|
   pm.     pm.       pm.
e|--------------------------------|
B|--------------------------------|
G|----3---------------5-----------|
D|----3---------------5-----------|
A|----1-1-1-1-1-0-----3-----------|
E|----------------3-1-------------|


**************
Chorus/Finale:
**************

RHYTHM Guitar:

"Baby let's face it, you know it's a shame..."
						Repeat until fade out
e|-----------------------|------------------------------------------|
B|o----------------------|-----------------------------------------o|
G|---7--------5------2---|---7-------5----2-------------------------|
D|---7--------5------2---|---7-------5----2-------------------------|
A|o--5--------3------0---|---5-------3----0-----3p2p0-------0------o|
E|-----------------------|----------------------------3-0-3---------|


Outro Solo:

e|---------------------------------------------------------------------------|
B|-------8-7-----------------------------------------------------------------|
G|--9b11-----9-7--------------5----------------------------------------------|
D|----------------9b10-7--5-7---7--------------------------------------------|
A|---------------------------------------------------------------------------|
E|---------------------------------------------------------------------------|

e|---------------------------------------------------------------------------|
B|---------------------------------------------------------------------------|
G|---------------------------------------------------------------------------|
D|---------------------------------------------------------------------------|
A|---5b7-5-3-5b7r5p3-5-3-5-0-------------------------------------------------|
E|-------------------------------3-5-3-5-8-5-----3-0-3-5---------------------|

e|---------------------------------------------------------------------------|
B|---------------------------------------------------------------------------|
G|--x-2-4b5-2p0--x-2-4b5-2p0--x-2p0-4b5-2p0----------------------------------|
D|---------------------------------------------------------------------------|
A|---------------------------------------------------------------------------|
E|---------------------------------------------------------------------------|

e|---------------------------------------------------------------------------|
B|----------------8-----8-----8-----8-----8---------8b10---------------------|
G|--5-7-7b9-5-7b9---7b9---7b9---7b9---7b9---7b9r7p5--------------------------|
D|---------------------------------------------------------------------------|
A|---------------------------------------------------------------------------|
E|---------------------------------------------------------------------------|

e|-------------------8-----------8--10b12r10-b12r10~-8-8-10------------------|
B|--8-10-8b10---8-10----10--8-10---------------------------------------------|
G|---------------------------------------------------------------------------|
D|---------------------------------------------------------------------------|
A|---------------------------------------------------------------------------|
E|---------------------------------------------------------------------------|

e|-------15-------15-------15-------15-------15-----------------15b17~-------|
B|-15b17----15b17----15b17----15b17----15b17-----15b17r15p13-----------------|
G|-----------------------------------------------------------14--------------|
D|---------------------------------------------------------------------------|
A|---------------------------------------------------------------------------|
E|---------------------------------------------------------------------------|


e|---17-21--17-21--17-21-17--15-17-17-17-17-17-17-17-17-15-------------------|
B|---------------------------15-17-17-17-17-17-17-17-17-15-------------------|
G|---------------------------------------------------------------------------|
D|---------------------------------------------------------------------------|
A|---------------------------------------------------------------------------|
E|---------------------------------------------------------------------------|

and it's faded out!


| /  slide up
| \  slide down
| h  hammer-on
| p  pull-off
| ~  vibrato
| +  harmonic
| x  Mute note
| b  Bend note
| r  Release bend
| pb Prebend note
===============================================================================
Related for Its Gotta Be Love tab