Song name
# A B C D E F G H I J K L M N O P Q R S T U V W X Y Z

Stuck In The City - 911 tab

-------------------------------------------------------------------------------
			                       9/11 - Stuck In The City
-------------------------------------------------------------------------------
Tabbed by: Harley Ganiere
Email: harley.ganiere@yahoo.com

Tuning: Standard
  Lead Intro                                    Repeat 1x  (Distortion)

e|-------------------------------------------------------|-------------------|
B|-------------------------------------------------------|-------------------|
G|-------------------------------------------------------|-------------------|
D|-------------------------------------------------------|-------------------|
A|-------------------------------------------------------|-------------------|
E|0-0-0-0-0-0-0-0-3-3-3-2-2-2-0-0-0-0-0-0-0-0-5-5-5-4-4-4|-------------------|
  Lead                                          Repeat 1x
                                                           (Distortion)
e|-------------------------------------------------------|-------------------|
B|-------------------------------------------------------|-------------------|
G|-------------------------------------------------------|-------------------|
D|-------------------------------------------------------|-------------------|
A|----------------3-3-3-2-2-2-----------------5-5-5-4-4-4|-------------------|
E|0-0-0-0-0-0-0-0-3-3-3-2-2-2-0-0-0-0-0-0-0-0-5-5-5-4-4-4|-------------------|
  Lead Riff 1         Repeat 1x
Pm. . . . . . . . . . . .  .                               (Distortion)
e|-----------------------------|---------------------------------------------|
B|-----------------------------|---------------------------------------------|
G|-----------------------------|---------------------------------------------|
D|-----------------------------|---------------------------------------------|
A|--3-2---5-4---3-2---5-4-(4)--|---3-2---5-4---3-2---5-4-(4)b----------------|
E|0-3-2-0-5-4-0-3-2-0-5-4-(4)--|-0-3-2-0-5-4-0-3-2-0-5-4-(4)b----------------|
Rhythm Riff 1         Repeat 1x
Pm. . . . . . . . . . . .  .                               (Distortion)
e|-----------------------------|---------------------------------------------|
B|-----------------------------|---------------------------------------------|
G|-----------------------------|---------------------------------------------|
D|-----------------------------|---------------------------------------------|
A|--3-2---5-4---3-2---5-4-(4)--|---3-2---5-4---3-2---5-4-(4)b----------------|
E|0-3-2-0-5-4-0-3-2-0-5-4-(4)--|-0-3-2-0-5-4-0-3-2-0-5-4-(4)b----------------|
 Rhythm Riff 2 (before and after solo)
                 Repeat 4x                                    (Distortion)
e|------------------------|--------------------------------------------------|
B|------------------------|--------------------------------------------------|
G|------------------------|--------------------------------------------------|
D|------------------------|--------------------------------------------------|
A|----3-----2-----5-----4-|-(4)----------------------------------------------|
E|0-0-3-0-0-2-0-0-5-0-0-4-|-(4)----------------------------------------------|
Lead Solo
                                                  (Distortion and Delay)
e|0h3h5-0h3h5-0h3h5-0h5h7-0h5h7-0h5h7-0h7h9-0h7h9-0h7h9-0h5h7-0h5h7----------|
B|---------------------------------------------------------------------------|
G|---------------------------------------------------------------------------|
D|---------------------------------------------------------------------------|
A|---------------------------------------------------------------------------|
E|---------------------------------------------------------------------------|
Lead Solo
                    Distortion and Delay   D.Time to the max then normal
e|0h5h7-0h3h5-0h3h5-0h3h5-0h2h3-0h2h3-0h2h3----------------------------------|
B|---------------------------------------------------------------------------|
G|---------------------------------------------------------------------------|
D|---------------------------------------------------------------------------|
A|---------------------------------------------------------------------------|
E|---------------------------------------------------------------------------|

************************************

| /   slide up
| \   slide down
| h   hammer-on
| p   pull-off
| ~   vibrato
| ()  held
| +   harmonic
| x   Mute note
| b   Bend
| pb  Pre-bend
| br  Bend release
| pbr Pre-bend release
| brb Bend release bend

************************************
This tab is owned by harley.ganiere@yahoo.com this tab is for studying only.
For use of this Tab contact the owner. This Tab is under copyright Of Harley Ganiere. 
rights reserved under Harley Ganiere.
Tap to rate this tab
# A B C D E F G H I J K L M N O P Q R S T U V W X Y Z