Song name
# A B C D E F G H I J K L M N O P Q R S T U V W X Y Z

Stuck Mojo - Walk The Line tab

Note: 80% of Stuck Mojo songs are tuned to a Drop C, the other 20% is tuned to a Drop D, 
decide which on this song.

Key:
/ Denote Hammer
. Palm Mute
x Palm Mute
b Bend

Intro riff
|------------------------------------------------------|
|------------------------------------------------------|
|------------------------------------------------------|
|-----------------------3-------------------5-7-5-3----|
|--3/5-----3/5-----3/5----------3/5---3/5-----------7--|
|------0-0-----0-0--------0-0-------0-----0-0----------|
       . .     . .        . .       .     . .

|-------------------------------------------------------|
|-------------------------------------------------------|
|----------------------------------------------------9--|
|-----------------------3-------------------8-10-8-6----|
|--3/5-----3/5-----3/5----------3/5---3/5---------------|
|------0-0-----0-0--------0-0-------0-----0-0-----------|
       . .     . .        . .       .     . .
(repeat intro riff)


Verse riff---------------------------x4-------------------------------------|
|---------------------------------------------------------------------------|
|---------------------------------------------------------------------------|
|---------------------------------------------------------------------------|
|----------7-7-7-7-----------7-7-7-7-----------7-7-7-7-----------3-3-3-3----|
|----------5-5-5-5-----------5-5-5-5-----------5-5-5-5-----------3-3-3-3----|
|-x-x-x-x--0-0-0-0--x-x-x-x--0-0-0-0--x-x-x-x--0-0-0-0--x-x-x-x--3-3-3-3----|


Prechorus
|----------------------------------------------------------------|
|---------------------------------------------------------6-6-5--|
|------------------------7-7-5-----------------------------------|
|----------------------------------------------------------------|
|-3/5---3/5---3/5---3/5-------------3/5---3/5---3/5---3/5--------|
|-----0-----0-----0-------------0-0-----0-----0-----0------------|

------------------------------------------------------------------|
---------------------------------------------------------7-7-5-5--|
------------------------7-7-5-------------------------------------|
------------------------------------------------------------------|
-3/5---3/5---3/5---3/5-------------3/5---3/5---3/5---3/5----------|
-----0-----0-----0-------------0-0-----0-----0-----0--------------|

Chorus-----x4-------------|
|-------------------------|
|-------------------------|
|-------------------------|
|-------------------------|
|-0-6b--0-5b-0-5-0-1-1----|
|-0-6b--0-5b-0-5-0-1-1----|
             . . . . .

Intro riff
|------------------------------------------------------|
|------------------------------------------------------|
|------------------------------------------------------|
|-----------------------3-------------------5-7-5-3----|
|--3/5-----3/5-----3/5----------3/5---3/5-----------7--|
|------0-0-----0-0--------0-0-------0-----0-0----------|
       . .     . .        . .       .     . .

|-------------------------------------------------------|
|-------------------------------------------------------|
|----------------------------------------------------9--|
|-----------------------3-------------------8-10-8-6----|
|--3/5-----3/5-----3/5----------3/5---3/5---------------|
|------0-0-----0-0--------0-0-------0-----0-0-----------|
       . .     . .        . .       .     . .

Verse riff---------------------------x4-------------------------------------|
|---------------------------------------------------------------------------|
|---------------------------------------------------------------------------|
|---------------------------------------------------------------------------|
|----------7-7-7-7-----------7-7-7-7-----------7-7-7-7-----------3-3-3-3----|
|----------5-5-5-5-----------5-5-5-5-----------5-5-5-5-----------3-3-3-3----|
|-x-x-x-x--0-0-0-0--x-x-x-x--0-0-0-0--x-x-x-x--0-0-0-0--x-x-x-x--3-3-3-3----|


Prechorus
|----------------------------------------------------------------|
|---------------------------------------------------------6-6-5--|
|------------------------7-7-5-----------------------------------|
|----------------------------------------------------------------|
|-3/5---3/5---3/5---3/5-------------3/5---3/5---3/5---3/5--------|
|-----0-----0-----0-------------0-0-----0-----0-----0------------|

------------------------------------------------------------------|
---------------------------------------------------------7-7-5-5--|
------------------------7-7-5-------------------------------------|
------------------------------------------------------------------|
-3/5---3/5---3/5---3/5-------------3/5---3/5---3/5---3/5----------|
-----0-----0-----0-------------0-0-----0-----0-----0--------------|

Chorus0----x4-------------|
|-------------------------|
|-------------------------|
|-------------------------|
|-------------------------|
|-0-6b--0-5b-0-5-0-1-1----|
|-0-6b--0-5b-0-5-0-1-1----|
             . . . . .

*note the solo might be the slightest bit wrong, when I asked Rich Ward how to play it 
said just learn it by ear, so I tried my best with this*

Solo-------------x4-------------------|
|-------------------------------------|
|-----------------------------7-5b----|
|-----------7-9-8-5/7---6/8-----------|
|-12---9b11-----------7-----10--------|
|-------------------------------------|
|-------------------------------------|

Interlude----------x2---------------------|
|-----------------------------------------|
|-----------------------------------------|
|-----------------------------------------|
|-----------------------------------------|
|-0-1-4-1-0-0-1-0-1--0-1-5-4-1-1-4-1-4----|
|-0-1-4-1-0-0-1-0-1--0-1-5-4-1-1-4-1-4----|
          . . . . .          . . . . .

Prechorus
|----------------------------------------------------------------|
|---------------------------------------------------------6-6-5--|
|------------------------7-7-5-----------------------------------|
|----------------------------------------------------------------|
|-3/5---3/5---3/5---3/5-------------3/5---3/5---3/5---3/5--------|
|-----0-----0-----0-------------0-0-----0-----0-----0------------|

------------------------------------------------------------------|
---------------------------------------------------------7-7-5-5--|
------------------------7-7-5-------------------------------------|
------------------------------------------------------------------|
-3/5---3/5---3/5---3/5-------------3/5---3/5---3/5---3/5----------|
-----0-----0-----0-------------0-0-----0-----0-----0--------------|


Chorus-----x4-------------|
|-------------------------|
|-------------------------|
|-------------------------|
|-------------------------|
|-0-6b--0-5b-0-5-0-1-1----|
|-0-6b--0-5b-0-5-0-1-1----|
             . . . . .

Interlude/Fade out----x2------------------|
|-----------------------------------------|
|-----------------------------------------|
|-----------------------------------------|
|-----------------------------------------|
|-0-1-4-1-0-0-1-0-1--0-1-5-4-1-1-4-1-4----|
|-0-1-4-1-0-0-1-0-1--0-1-5-4-1-1-4-1-4----|
          . . . . .          . . . . .

Fade out
|-----------------|
|-----------------|
|-----------------|
|-7--3--7--9--12--|
|-5--3--7--9--12--|
|-0--3--5--7--12--|
Tap to rate this tab
# A B C D E F G H I J K L M N O P Q R S T U V W X Y Z