Song name
# A B C D E F G H I J K L M N O P Q R S T U V W X Y Z

Stuck Mojo - Back In The Saddle tab

-------------------------------------------------------------------------------
			     Back In The Saddle - Stuck Mojo
-------------------------------------------------------------------------------

Tuning: Drop C

Intro 1          pm---------|
D----------------------------|
A----------------------------|
F----------------------------|
C----------------1-1--1-1--1-|
G-3/5--3/5--3/5--1-1--1-1--1-|
C-0----0----0----1-1--1-1--1-|

Intro 2
                 pm---------|
D---------------|--------------|-----|
A---------------|--------------|-----|
F---------------|------------5-|-----|
C---------------|------------3-|-0-1-|
G-3/5--3/5--3/5-|--------------|-0-1-|
C-0----0----0---|-0--0-0-1-0---|-0-1-|

Verse
 pm-----------------|
D--------------------|
A--------------------|
F--------------------|
C-1-1--1-1--1-1--1-1-|
G-1-1--1-1--1-1--1-1-|
C-1-1--1-1--1-1--1-1-|

 pm------------|
D---------------|--------|--------|
A---------------|--------|--------|
F---------------|--------|--------|
C-1-1--1-1--1-1-|-1-1--3-|-3-4--1-|
G-1-1--1-1--1-1-|-1-1--3-|-3-4--1-|
C-1-1--1-1--1-1-|-1-1--3-|-3-4--1-|

Pre Chorus
                pm---------|
D---------------------------|
A---------------------------|
F-7~---7~---7~--------------|
C---------------0-0--0-0--0-|
G-5~---5~---5~--0-0--0-0--0-|
C----0----0-----0-0--0-0--0-|

                          pm-------|
D--------------|--------|-------------|
A--------------|--------|-------------|
F-7~---7~---7~-|--------|-------------|
C--------------|-3-4--1-|-----------3-|
G-5~---5~---5~-|-3-4--1-|-----------3-|
C----0----0----|-3-4--1-|-0--0-1-0--3-|

Chorus
 pm-----------------|
D--------------------|---|---|
A--------------------|---|---|
F--------------------|---|-5/|
C-1-1--1-1--1-1--1-1-|-3-|-3/|
G-1-1--1-1--1-1--1-1-|-3-|---|
C-1-1--1-1--1-1--1-1-|-3-|---|

Bridge
    pm---|
D---------|
A---------|
F---------|
C-3-------|
G-3-------|
C-3-0-0-0-|

Tap to rate this tab
# A B C D E F G H I J K L M N O P Q R S T U V W X Y Z