Song name
# A B C D E F G H I J K L M N O P Q R S T U V W X Y Z

Stuck Mojo - Crooked Figurehead tab

Stuck Mojo - Crooked Figurehead
Tuning: Drop C 

Intro/Verse
pm ------- -------- -------- -------- -------- -------- -------
D-----------------------------------------------------------------|
A-----------------------------------------------------------------|
F-----------------------------------------------------------------|
C-5-------5--------5--------5--------5--------5--------5-------0--|
G--------------------------------------------------------------0--|
C--2-2-2----2-2-2----2-2-2----2-2-2----2-2-2----2-2-2----2-2-2-0--|

Pre-chorus
   pm----------------------|  pm---------------------|
D-------------------------------------------------------|
A-------------------------------------------------------|
F-------------------------------------------------------|
C-7-------------------------7-------------------------7-|
G-7-------------------------7-------------------------7-|
C-7-4-4-4-4-4-4-4-4-4-4-4-4-7-4-4-4-4-4-4-4-4-4-4-4-4-7-|
   pm----------------------|  pm---------------------|
D-------------------------------------------------------|
A-------------------------------------------------------|
F-------------------------------------------------------|
C-7-------------------------7-------------------------2-|
G-7-------------------------7-------------------------2-|
C-7-4-4-4-4-4-4-4-4-4-4-4-4-7-4-4-4-4-4-4-4-4-4-4-4-4-2-|
   pm----------------------|  pm---------------------|
D-------------------------------------------------------|
A-------------------------------------------------------|
F-------------------------------------------------------|
C-2-------------------------2-------------------------2-|
G-2-------------------------2-------------------------2-|
C-2-0-0-0-0-0-0-0-0-0-0-0-0-2-0-0-0-0-0-0-0-0-0-0-0-0-2-|

   pm--------------------|  pm---------|
D-----------------------------------------------|
A-----------------------------------------------|
F-----------------------------------------------|
C-2-----------------------2-------------X-0-X-1-|
G-2-----------------------2-------------X-0-X-1-|
C-2-0-0-0-0-0-0-0-0-0-0-0-2-0-0-0-0-0-0-X-0-X-1-|

D-----------------------------------------|
A-----------------0-----------------------|
F-----------------2wah--------------------|
C-2--2-2-5--X-0-2----2--2-2-5--X-0-2--0-2-|
G-2--2-2-5--X-0-2----2--2-2-5--X-0-2--0-2-|
C-2--2-2-5--X-0-2----2--2-2-5--X-0-2--0-2-|

Interlude
  pm-----|
D-------------------------------|
A-------------------------------|
F---------5-5-5-5---------------|
C---------3-3-3-3--3-3-3-3-3--5-|
G------------------1-1-1-1-1--3-|
C-0-0-0-0-----------------------|

Pre Solo
D-------------------------------------------|
A-7--7-7-7--7-7//10--10--7--7-7-7--7-7//5-5-|
F-6--6-6-6--6-6//9---9---6--6-6-6--6-6//4-4-|
C-------------------------------------------|
G-------------------------------------------|
C-------------------------------------------|

D--------------------------------------------|
A-7--7-7-7--7-7//10-10--7--7-7-7--7-7//10-10-|
F-6--6-6-6--6-6//9--9---6--6-6-6--6-6//9--9--|
C--------------------------------------------|
G--------------------------------------------|
C--------------------------------------------|

Solo
D---------------------------------12--10---------------|
A--------10----10-12--10----12---------13-12--10-------|
F-11-------11------------11------------------------11--|
C------------------------------------------------------|
G------------------------------------------------------|
C------------------------------------------------------|

D---------------------|
A---------------------|
F-12-12--10--12-10--9-|
C---------------------|
G---------------------|
C---------------------|
Tap to rate this tab
# A B C D E F G H I J K L M N O P Q R S T U V W X Y Z