Song name
# A B C D E F G H I J K L M N O P Q R S T U V W X Y Z

Stuck Mojo - Rising tab

Stuck Mojo - Rising
Tuning: Drop C

Intro/Chorus
D|---------------------------------------|--5tr6-----------------------|
A|---------------------------------------|-----------------------------|
F|---------------------------------------|-----------------------------|
C|---------------------------------------|-----------------------------|
G|-----/7p5h7--/7p5h7--/7p5h7--/7p5h7----|-----------------------------|
C|-----/7p5h7--/7p5h7--/7p5h7--/7p5h7----|-----------------------------|
                                

Verses
D|---------------------------------------------------------------------|
A|---------------------------------------------------------------------|
F|---------------------------------------------------------------------|
C|--2-2----------------------------------------------------------------|
G|--0-0--2p0--3p0--5p0--3p0--------------------------------------------|
C|---------------------------------------------------------------------|


D|------------------|--------------------------------------------------|
A|------------------|--------------------------------------------------|
F|------------------|--------------------------------------------------|
C|--------------5-5-|--------------------------------------------------|
G|--7---5---0---3-3-|--------------------------------------------------|
C|--7---5---0-------|--------------------------------------------------|

Pre-Chorus
D|----------------------------------|----------------------------------|
A|----------------------------------|----------------------------------|
F|----------------------------------|----------------------------------|
C|----------------------------------|----------------------------------|
G|--\5-3-0--\5-3-0--\5-3-0--\5-3-0--|--3-------------------------------|
C|--\5-3-0--\5-3-0--\5-3-0--\5-3-0--|------6--5--3~--------------------|


Outro
D|--------|-------------------------------------------------------------|
A|--------|-------------------------------------------------------------|
F|--------|-------------------------------------------------------------|
C|--5--7--|----------------------------5--7-----------------------------|
G|--3--5--|--3--0-3-0-3-5-0--3--0-3-0--3--5-----------------------------|
C|--------|--3--0-3-0-3-5-0--3--0-3-0-----------------------------------|
Tap to rate this tab
# A B C D E F G H I J K L M N O P Q R S T U V W X Y Z