Song name
# A B C D E F G H I J K L M N O P Q R S T U V W X Y Z

Student Rick - Please Forgive Me tab

Song: Please Forgive Me
Artist: Student Rick
Ear Tabber: Elvin Hayes Gentiles

Intro Part 1: (after drums)
Guitar 1:            Guitar 2:
e|-------|           |----------------------|
B|----P--|           |--121212-111111-------|
G|--4-A--|  then...  |----------------1111--|
D|--4-U--|           |----------------------| 4x
A|--2-S--|           |----------------------|
E|----E--|           |----------------------|


Intro Part 2:
Guitar 1:
e|------------------------------------------|
B|------------------------------------------|
G|--44444444--------------------------------|
D|--44444444--44444444--66666666--22222222--| 2x
A|--22222222--44444444--66666666--22222222--|
E|------------22222222--44444444--00000000--|

Guitar 2: (played twice)
e|----------------------|
B|--121212-111111-------|
G|----------------1111--|
D|----------------------| 3x
A|----------------------|
E|----------------------|
(continued)
e|------------------------|
B|--14-12-11-11h12----12--|
G|-----------------11-----|
D|------------------------|
A|------------------------|
E|------------------------|


Verse:
Guitar 1:
e|------------------------------------------|
B|------------------------------------------|
G|--44444444--------------------------------|
D|--44444444--44444444--66666666--22222222--| 4x
A|--22222222--44444444--66666666--22222222--|
E|------------22222222--44444444--00000000--|
    ........  ........  ........  ........

Guitar 2: (played twice)
e|----------------------|
B|--121212-111111-------|
G|----------------1111--|
D|----------------------| 4x
A|----------------------|
E|----------------------|
(continued)
e|----------------------|
B|--121212-111111-------|
G|----------------1111--|
D|----------------------| 3x
A|----------------------|
E|----------------------|
(continued)
e|------------------------|
B|--14-12-11-11h12----12--|
G|-----------------11-----|
D|------------------------|
A|------------------------|
E|------------------------|


Refrain:
Guitar 1:
e|--------------------------------------|
B|--------------------------------------|
G|--6666666666666666--------------------|
D|--6666666666666666--6666666666666666--|
A|--4444444444444444--6666666666666666--|
E|--------------------4444444444444444--|
(continued)
e|----------------------------------------------------|
B|----------------------------------------------------|
G|--6666666666666666----------------------8-8-8--9-9--|
D|--6666666666666666--6666666666666666----8-8-8--9-9--|
A|--4444444444444444--6666666666666666----6-6-6--7-7--|
E|--------------------4444444444444444----------------|

Guitar 2:
e|-----------------------------------------|
B|-----------------------------------------|
G|--66666666--8888/9999--------------------|
D|--xxxxxxxx--xxxx/xxxx--6666666666666666--|
A|--44444444--6666/7777--6666666666666666--|
E|-----------------------4444444444444444--|
(continued)
e|------------------------------------------------------|
B|------------------------------------------------------|
G|--66666666--8888/9999/1010101010101010----8-8-8--9-9--|
D|--xxxxxxxx--xxxx/xxxx/-x-x-x-x-x-x-x-x----x-x-x--x-x--|
A|--44444444--6666/7777/-9-9-9-9-9-9-9-9----6-6-6--7-7--|
E|------------------------------------------------------|


Chorus:
Both Guitars:
e|----------------------------------------------|
B|-------------------------------------------P--|
G|-------------------------------------------A--|
D|--99999999--88888888--66666666--222222--2--U--|
A|--99999999--99999999--66666666--222222--2--S--|
E|--77777777--66666666--44444444--000000--0--E--|
(continued)
e|------------------------------------------|
B|------------------------------------------|
G|------------------------------------------|
D|--99999999--88888888--66666666--222222~~--|
A|--99999999--99999999--66666666--222222~~--|
E|--77777777--66666666--44444444--000000~~--|


Interlude Part 1:
Guitar 2:
e|----------------------|
B|--121212-111111-------|
G|----------------1111--|
D|----------------------| 4x
A|----------------------|
E|----------------------|


Interlude Part 2:
Guitar 1:
e|------------------------------------------|
B|------------------------------------------|
G|--44444444--------------------------------|
D|--44444444--44444444--66666666--22222222--| 2x
A|--22222222--44444444--66666666--22222222--|
E|------------22222222--44444444--00000000--|

Guitar 2: (played twice)
e|----------------------|
B|--121212-111111-------|
G|----------------1111--|
D|----------------------| 3x
A|----------------------|
E|----------------------|
(continued)
e|------------------------|
B|--14-12-11-11h12----12--|
G|-----------------11-----|
D|------------------------|
A|------------------------|
E|------------------------|


Verse:
Guitar 1:
e|------------------------------------------|
B|------------------------------------------|
G|--44444444--------------------------------|
D|--44444444--44444444--66666666--22222222--| 4x
A|--22222222--44444444--66666666--22222222--|
E|------------22222222--44444444--00000000--|
    ........  ........  ........  ........

Guitar 2: (played twice)
e|----------------------|
B|--121212-111111-------|
G|----------------1111--|
D|----------------------| 4x
A|----------------------|
E|----------------------|
(continued)
e|----------------------|
B|--121212-111111-------|
G|----------------1111--|
D|----------------------| 3x
A|----------------------|
E|----------------------|
(continued)
e|------------------------|
B|--14-12-11-11h12----12--|
G|-----------------11-----|
D|------------------------|
A|------------------------|
E|------------------------|


Refrain:
Guitar 1:
e|--------------------------------------|
B|--------------------------------------|
G|--6666666666666666--------------------|
D|--6666666666666666--6666666666666666--|
A|--4444444444444444--6666666666666666--|
E|--------------------4444444444444444--|
(continued)
e|----------------------------------------------------|
B|----------------------------------------------------|
G|--6666666666666666----------------------8-8-8--9-9--|
D|--6666666666666666--6666666666666666----8-8-8--9-9--|
A|--4444444444444444--6666666666666666----6-6-6--7-7--|
E|--------------------4444444444444444----------------|

Guitar 2:
e|-----------------------------------------|
B|-----------------------------------------|
G|--66666666--8888/9999--------------------|
D|--xxxxxxxx--xxxx/xxxx--6666666666666666--|
A|--44444444--6666/7777--6666666666666666--|
E|-----------------------4444444444444444--|
(continued)
e|------------------------------------------------------|
B|------------------------------------------------------|
G|--66666666--8888/9999/1010101010101010----8-8-8--9-9--|
D|--xxxxxxxx--xxxx/xxxx/-x-x-x-x-x-x-x-x----x-x-x--x-x--|
A|--44444444--6666/7777/-9-9-9-9-9-9-9-9----6-6-6--7-7--|
E|------------------------------------------------------|


Chorus:
Both Guitars:
e|------------------------------------------|
B|------------------------------------------|
G|------------------------------------------|
D|--99999999--88888888--66666666--22222222--|
A|--99999999--99999999--66666666--22222222--|
E|--77777777--66666666--44444444--00000000--|
(continued)
e|----------------------------------------------|
B|-------------------------------------------P--|
G|-------------------------------------------A--|
D|--99999999--88888888--66666666--222222--2--U--|
A|--99999999--99999999--66666666--222222--2--S--|
E|--77777777--66666666--44444444--000000--0--E--|
(continued)
e|-------|
B|-------|
G|-------|
D|--2~~--|
A|--2~~--|
E|--0~~--|


Interlude Part 1:
Guitar 2:
e|----------------------|
B|--121212-111111-------|
G|----------------1111--|
D|----------------------| 4x
A|----------------------|
E|----------------------|


Interlude Part 2:
Guitar 1:
e|------------------------------------------|
B|------------------------------------------|
G|--44444444--------------------------------|
D|--44444444--44444444--66666666--22222222--| 2x
A|--22222222--44444444--66666666--22222222--|
E|------------22222222--44444444--00000000--|

Guitar 2:
e|----------------------|
B|--121212-111111-------|
G|----------------1111--|
D|----------------------| 8x
A|----------------------|
E|----------------------|


Interlude Part 3:
Guitar 1:
e|-------|
B|-------|
G|-------|
D|--2~~--|
A|--2~~--|
E|--0~~--|

Guitar 2:
e|---------------|
B|--12p11-14p12--|
G|---------------|
D|---------------| 8x
A|---------------|
E|---------------|
(continued)
e|--------------------|
B|--------------------|
G|--------------------|
D|--------------------|
A|--/////pick///////--|
E|--/////slide//////--|


Chorus:
Both Guitars:
e|----------------------------------------------|
B|-------------------------------------------P--|
G|-------------------------------------------A--|
D|--99999999--88888888--66666666--222222--2--U--|
A|--99999999--99999999--66666666--222222--2--S--|
E|--77777777--66666666--44444444--000000--0--E--|
(continued)
e|------------------------------------------|
B|------------------------------------------|
G|------------------------------------------|
D|--99999999--88888888--66666666--222222~~--|
A|--99999999--99999999--66666666--222222~~--|
E|--77777777--66666666--44444444--000000~~--|
Tap to rate this tab
# A B C D E F G H I J K L M N O P Q R S T U V W X Y Z