Student Rick - A Childs Cry tab

Verse 1:
little girl dry your eyes:
-----------------------------------------|
-----55------55------55-------55---------|
---22--2---22--2---22--2----22--2--------|
-44------22------00------00--------------|
-----------------------------------------|
-----------------------------------------|

Bridge:
Their hearts are soft and gentle:
-------------------------------|
----5---5---5---5--------------|
---2-2-2-5-2-2-2-2-------------|
--4---2---0---0----------------|
-------------------------------|
-------------------------------|

Chorus:
Where are you going, where have you been
--3--3--3--3-----------------------|
--3--3--3--3-----------------------|
--0--2--0--0-----------------------|
--0--0--2--2-----------------------|
--2--0--2--3-----------------------|
--3--2--0--0-----------------------|

After Chorus:
--------------------------------|
------55---------------3333-----|
----22--2---22---------2222-----|
--44------22-----7-5-4-0000-----|
--------------------------------|
--------------------------------|

Bridge:
Beautiful baby, dry your eyes...
-------------------------------|
----5---5---5---5--------------|
---2-2-2-5-2-2-2-2-------------|
--4---2---0---0----------------|
-------------------------------|
-------------------------------|

verse 2:
Drowning in your lies... x2
-------------------------------|
-------------------------------|
-------------------------------|
--55-44-22222222-22------------|
--55-44-22222222-22------------|
--33-22-00000000-00------------|

verse 2(end)
I'm holding on to nothing, like water in my hands
------------------------------------|
------------------------------------|
--555555555555555-777777777777777---|
--555555555555555-777777777777777---|
--333333333333333-555555555555555---|
------------------------------------|


Verse 1(changed...shorter)
Hey little girl dry your eyes...
-------------------------------|
----5---5---5---5--------------|
---2-2-2-5-2-2-2-2-------------|
--4---2---0---0----------------|
-------------------------------|
-------------------------------|

Chorus:
Where are you going, where have you been
--3--3--3--3-----------------------|
--3--3--3--3-----------------------|
--0--2--0--0-----------------------|
--0--0--2--2-----------------------|
--2--0--2--3-----------------------|
--3--2--0--0-----------------------|

verse 2:
Drowning in your lies... x2
-------------------------------|
-------------------------------|
-------------------------------|
--55-44-22222222-22------------|
--55-44-22222222-22------------|
--33-22-00000000-00------------|

verse 2(end)
I'm holding on to nothing, like water in my hands
------------------------------------|
------------------------------------|
--555555555555555-777777777777777---|
--555555555555555-777777777777777---|
--333333333333333-555555555555555---|
------------------------------------|

End Riff(part 1)... x1
where are you going, where have you been...
------------------------------------|
------------------------------------|
------------------------------------|
----5---5---5---5---5---5---5---5---|
---2-2-2-2-0-0-0-0-2-2-2-2-2-2-2-2--|
--3---3---2---2---0---0---0---0-----|

End Riff(part 2)... x1
--------------------------------------|
--------------------------------------|
----------------------------0--2p0-0--|
----5---5---5---5---5---5---------2---|
---2-2-2-2-0-0-0-0-2-2-2-2-2-2--------|
--3---3---2---2---0---0---0-----------|

verse 2:
Drowning in your lies...
-------------------------------|
-------------------------------|
-------------------------------|
--55-44-22222222-22------------|
--55-44-22222222-22------------|
--33-22-00000000-00------------|

verse 2:
Deceived by your eyes..
-------------------------------|
-------------------------------|
-------------------------------|
--55-44-22222222-22------------|
--55-44-22222222-22------------|
--33-22-00000000-00------------|

Drowning in your lies...
-------------------------------|
-------------------------------|
-------------------------------|
--55-44-2~---------------------|
--55-44-2~---------------------|
--33-22-0~---------------------|

Chorus in CHORD letters:(look at tab for the patter or chord)

G               Gsus2
where are you going, where have you been
Em/d                 c/G
ive waited all night, for you again

LYRICS:
Hey little girl dry your eyes
Your dad heís on his way
Donít hang your dress away
Hey little boy youíve
cracked your blinds
To watch him pull away
And he doesnít see you cry

Their hearts and soft and gentle
And yet you push them away
You push them away
Why canít you open your eyes?
And see that theyíre dying inside

Where are you going?
Where have you been?
Iíve waited all night for you again
Where are you going?
Where have you been?
Iíve waited all night for you

Beautiful baby dry your eyes

Drowning in your lies
Deceived by your eyes
Iím holding on to nothing
Like water in my hands
As it slips away

Hey little girl dry your eyes
Your dad heís on his way
Donít hang your dress away
Hey little boy youíve
cracked your blinds
To watch him pull away
And he doesnít see you cry

Where are you going?
Where have you been?
Iíve waited all night for you again
Where are you going?
Where have you been?
Iíve waited all night for you

Drowning in your lies
Deceived by your eyes
Iím holding on to nothing
Like water in my hands
As it slips away

Where are you going?
Where have you been?
Iíve waited all night
Hoping that someday
Youíll realize that Iím

Drowning in your lies
Deceived by your eyes
Drowning in your lies
Tap to rate this tab
 
# A B C D E F G H I J K L M N O P Q R S T U V W X Y Z