Song name
# A B C D E F G H I J K L M N O P Q R S T U V W X Y Z

Student Rick - Monday Morning tab

Intro:

Guitar 1:
E|-7-----0---0---------------|
B|---0-4---4---4-2-4-2-0-2-0-|
G|---------------------------|
D|---------------------------|
A|---------------------------|
E|---------------------------| X7

Guitar 2:
E|-----|-----------------------------|---------------------------------|
B|-----|-----------------------------|---------------------------------|
G|-----|-----------------------------|---------4--4-4--6--6-6--6-6-6-6-|
D|--2--|-2---------------------------|-2--2-2--4--4-4--6--6-6--6-6-6-6-|
A|--2--|-2-2-2-2-2-2-2-2-2-2-2-2-2-2-|-2--2-2--2--2-2--4--4-4--4-4-4-4-|
E|-----|---0-0-0-0-0-0-0-0-0-0-0-0-0-|-0--0-0--------------------------| X3
            *************************
   3rd   4th                             5th

Verse:

Monday Morning, time to get out of bed. Work sucks, this is the part that I dread. 7:30, 
bus came early again. My luck. My girlfriend turned gay.

The times are changing. How will I ever survive? With no job. Lucky to be alive. I'm on 
a journey. To dig myself out of this. What a drag. All the good times I miss.

Guitar 1:
E|--------|------------------------------------------------------|
B|--------|------------------------------------------------------|
G|--------|-----------------9-9-9--8-8-8--7-7-7--7-7-7-----------|
D|-7------|-7-5-3-3--3-3-3--9-9-9--8-8-8--7-7-7--7-7-7--7-7-7--7-|
A|-7------|-7-5-3-3--3-3-3--7-7-7--6-6-6--5-5-5--5-5-5--7-7-7--7-|
E|-5------|-5-3-1-1--1-1-1------------------------------5-5-5--5-| X2

Guitar 2:
E|--------|-----|
B|--------|-----|
G|--2-----|-2-1-|
D|--------|-----|
A|--------|-----|
E|--------|-----|

Pre-Chorus:

Now I'm sitting here trying to find myself and I feel like I'm heading nowhere; it's 
only Monday.

Guitar 1:
|----------0--------------------0---------------------------------|
|----0---------0----0------0--------------------------------------|
|---------------------------------2-2-2-2-2-2-2-2-4-4-4-4-4-4-4-4-|
|--4-----6---2----2------4----6---2-2-2-2-2-2-2-2-4-4-4-4-4-4-4-4-|
|-2-----4---0----0------2----4----0-0-0-0-0-0-0-0-2-2-2-2-2-2-2-2-|
|-----------------------------------------------------------------|

Guitar 2:

E|----------------------------------------------------------------|
B|----------------------------------------------------------------|
G|-4-4-4-4-6-6-6-6-2-2-2-2-2-2-2-2-4-4-4-4-6-6-6-6-2--2-2-2-2-2-2-|
D|-4-4-4-4-6-6-6-6-2-2-2-2-2-2-2-2-4-4-4-4-6-6-6-6-2--2-2-2-2-2-2-|
A|-2-2-2-2-4-4-4-4-0-0-0-0-0-0-0-0-2-2-2-2-4-4-4-4-0--0-0-0-0-0-0-|
E|----------------------------------------------------------------|
   ***********************************************    ***********
cont.
E|-----------------|
B|-----------------|
G|-4--4-4-4-4-4-4--|
D|-4--4-4-4-4-4-4--|
A|-2--2-2-2-2-2-2--|
E|-----------------|

Chorus:

Sunny Monday. Nothing's going my way. Forgotten tragedy. It only rains on me. But I'm 
still breathing. Will this day ever end? It's only Monday.

E|----------------------------------------------------------|
B|----------------------------------------------------------|
G|--------4--4-4-6--6-6-2--2-2-------2-4--4-4-6--6-6--------|
D|-2--2-2-4--4-4-6--6-6-2--2-2--2--2-2-4--4-4-6--6-6---2--2-|
A|-2--2-2-2--2-2-4--4-4-0--0-0--2--2-2-2--2-2-4--4-4---2--2-|
E|-0--0-0-----------------------0--0-0-----------------0--0-|

cont.
E|----------------------------------------------|
B|----------------------------------------------|
G|--------4--4-4-6--6-6-2--2-2---------6--6-6-2-|
D|-2--2-2-4--4-4-6--6-6-2--2-2--2--2-2-6--6-6-2-|
A|-2--2-2-2--2-2-4--4-4-0--0-0--2--2-2-4--4-4-0-|
E|-0--0-0-----------------------0--0-0----------|

Solo:
E|-12-11-------9-7--4-5-4-5-4-----12-11-------9-7--4-5-4-5-4-------------9-7|
B|-------12-10----------------5-5-------12-10----------------5-5-7-7-7-9----|
G|--------------------------------------------------------------------------|
D|--------------------------------------------------------------------------|
A|--------------------------------------------------------------------------|
E|--------------------------------------------------------------------------|

Order:
INTRO
VERSE
PRE-CHORUS
CHORUS
INTRO
VERSE
PRE-CHORUS
CHORUS
INTRO
SOLO
CHORUS
Tap to rate this tab
# A B C D E F G H I J K L M N O P Q R S T U V W X Y Z