Guitaretab - guitar tabs
Song name
# A B C D E F G H I J K L M N O P Q R S T U V W X Y Z

Sturm Und Drang - Mortals tab

                         Sturm Und Drang
                             Mortals
                         Learning to rock

[ Tab from: http://www.guitaretab.com/s/sturm-und-drang/111567.html ]
                                              lets ring
e|------------------------------------------------------------|
B|------------------------------------------------------------|
G|------------------------------------------------------------|
D|--6--6--7--7----6--6--9--9----6--6--7--7--6---9-9-----------|
A|--6--6--7--7----6--6--9--9----6--6--7--7--6---9-9-----------|
E|--4--4--5--5----4--4--7--7----4--4--5--5--4---7-7-----------|

e|--------------------------------------------------------------|
B|--------------------------------------------------------------|
G|--------------------------------------------------------------|
D|--6--6--7--7----6--6--9--9----6--6--7--7--6---9-9-------------|
A|--6--6--7--7----6--6--9--9----6--6--7--7--6---9-9-------------|
E|--4--4--5--5----4--4--7--7----4--4--5--5--4---7-7-------------|

Please comment and rate


Related for Mortals tab
Advertisement will be closed in 10 seconds