Song name
# A B C D E F G H I J K L M N O P Q R S T U V W X Y Z

Sturm Und Drang - Learning To Rock tab

Sturm Und Drang - Learning To Rock
|------------------|-------------------------------------------------|
|------------------|-------------------------------------------------|
|----------------2x|-------------------------------------------------|
|------------------|-------------------------------------------------|
|5-3-7-5-3-3-1--3-3|---3-3--1-1---3-3-5--3--1--5-5-3-3-3-3-3-3-3-3-3-|
|5-3-7-5-3-3-1--3-3|---3-3--1-1---3-3-5--3--1--5-5-3-3-3-3-3-3-3-3-3-|

-----------------------------|----------------------|
-----------------------------|--------------------4x|
-----------------------------|----------------------|
-----------------------------|----------------------|
1-1-1-1-1-1-1-1-1--3--5--7--5|----5-3-7-5-3-3-1--3-3|
1-1-1-1-1-1-1-1-1--3--5--7--5|----5-3-7-5-3-3-1--3-3|
Tap to rate this tab
# A B C D E F G H I J K L M N O P Q R S T U V W X Y Z