Song name
# A B C D E F G H I J K L M N O P Q R S T U V W X Y Z

Sturm Und Drang - Indian tab

Song: Indian
Band:Sturm Und Drang
Album: Learning To Rock
Tuning: Half step down (eb,Bb,Gb,Db,Ab,Eb)
Time signature:6/8
Tabbed by: Camillamazilla

This is almost whole tab for Indian. Otherwice i've made both guitars during whole song, but
in the solo and in the end i was able to make only one of them. Still trying to figure out
every notes :)
Enjoy and pleae rate or comment for any corrections.

  Inro (guitar, clean)
eb|-----------------------------0------0------------------------2--|
Bb|----3-----3-----3-----3-------0------0-----2-----2-----3-----3--|
Gb|---4-4---4-4---4-4---4-4----0--0---0--0---2-2---2-2---4-4---4-4-|
Db|--4---4-4---4-4---4-4---4--2------2------2---2-2---2-4---4-4---4|
Ab|-2-----2-----2-----2--------------------0-----0-----2-----2-----|
Eb|-------------------------0-------0------------------------------|


Inro (guitar, distortion)
eb|----------------------------------------------------------------|
Bb|-------------------------------------/7-8---7-------------------|
Gb|-------------7---7/9-9br-9br-9br-9~-------9---7-9-6-7---6-------|
Db|--/9~-----/9---9--------------------------------------9---7-9-9-|
Ab|----------------------------------------------------------------|
Eb|----------------------------------------------------------------|


Verse (Both guitars clen)

You can play natural harmonic in 1st Em. I've put * above those notes.

   Bm     Bm     Em *** Em      A     A     Bm    Bm
eb|-----------------0------0------------------------2---|
Bb|----3-----3-------0------0-----2-----2-----3-----3---|
Gb|---4-4---4-4----0--0---0--0---2-2---2-2---4-4---4-4--|
Db|--4---4-4---4--2------2------2---2-2---2-4---4-4---4-|
Ab|-2-----2--------------------0-----0-----2-----2------|
Eb|--------------0------0-------------------------------|


   Bm     Bm     Em     Em     A     A     Bm    Bm
eb|-----------------0------0------------------------2---|
Bb|----3-----3-------0------0-----2-----2-----3-----3---|
Gb|---4-4---4-4----0--0---0--0---2-2---2-2---4-4---4-4--|
Db|--4---4-4---4--2------2------2---2-2---2-4---4-4---4-|
Ab|-2-----2--------------------0-----0-----2-----2------|
Eb|--------------0------0-------------------------------|


Chorus (still clean)

    Gm     D    A   Em     Em     A     F#m    Bm    Bm
eb|---------(2)--------0------0------------2-------------------|
Bb|----3-----3----------0------0-----2-----2------3-----3------|
Gb|----4----2----2----0--0---0--0---2-2-----3----4-4---4-4-----|
Db|---5-5--0----2----2------2------2---2--4--4--4---4-4---4----|
Ab|--5---5-----0------------------0------4-----2-----2---------|
Eb|-3---------------0------0------------2----------------------|

  Gm     D    A   Em     Em     A       F#m A Bm
eb|---------(2)--------0------0------------------2------------|
Bb|----3-----3----------0------0-----2-----------3-----3------|
Gb|----4----2----2----0--0---0--0---2-2------2--4-4---4-4-----|
Db|---5-5--0----2----2------2------2---2--4-2--4---4-4---4----|
Ab|--5---5-----0------------------0------4-0--2-----2---------|
Eb|-3---------------0------0------------2---------------------|


Verse 2

(clean)
   Bm     Bm     Em *** Em      A     A     Bm    Bm       \
eb|-----------------0------0----------------------------|   |
Bb|----3-----3-------0------0-----2-----2-----3-----3---|   |
Gb|---4-4---4-4----0--0---0--0---2-2---2-2---4-4---4-4--|   |
Db|--4---4-4---4--2------2------2---2-2---2-4---4-4---4-|   |
Ab|-2-----2--------------------0-----0-----2-----2------|   |
Eb|--------------0------0-------------------------------|   |
                                                            |
(distortion)                                                |
   Bm            Em            A          Bm                |
eb|----2------------0-------------------------2-------|     |
Bb|----3------------0-------------2------------0~-----|     |
Gb|-4--4------------0-------------2-------------------|     |
Db|-4---------------2-------------2-------------------|     |
Ab|-2--------------------------0--0--------222--------|     |
Eb|--------------xx-----------------------------------|     |
                                           PM.              /


(clean)
   Bm     Bm     Em *** Em      A     A     Bm    Bm       \
eb|-----------------0------0----------------------------|   |
Bb|----3-----3-------0------0-----2-----2-----3-----3---|   |
Gb|---4-4---4-4----0--0---0--0---2-2---2-2---4-4---4-4--|   |
Db|--4---4-4---4--2------2------2---2-2---2-4---4-4---4-|   |
Ab|-2-----2--------------------0-----0-----2-----2------|   |
Eb|--------------0------0-------------------------------|   |
                                                            |
(distortion)                                                |
   Bm            Em nh nh           A          Bm           |
eb|-2---------------12------------------------2---------|   |
Bb|-3-----------------12----------------------3---------|   |
Gb|-4-----------------------------6--------4--4---------|   |
Db|-4--------------------------7--7--------4--4---------|   |
Ab|----------------------------7--7--------2222---------|   |
Eb|--------------0-------------5--5---------------------|   |
                                            PM              /

Chorus 2 and few notes before solo..

(both distortion)
eb|-------------------0-----------------------------|
Bb|-3-----7-----------0-----2-----------3-----------|
Gb|-4-----7-----------0-----2-----------4-----------|
Db|-5-----7--7--2-----------2-----4-----4-----------|
Ab|-5-----5--7--2-----------0-----4-----2-----------|
Eb|-3--------5--0-----------------2-----------------|

eb|-------------------0-----------------------------|
Bb|-3-----7-----------0-----2-----------------------|
Gb|-4-----7-----------0-----2--------------6--7-----|
Db|-5-----7--7--2-----------2-----4--7--9-----------|
Ab|-5-----5--7--2-----------0-----4--7-----4--5-----|
Eb|-3--------5--0-----------------2--5--7-----------|

Solo: Well for me the solo is a little hard to make coz there are two different 
I listened a live version of the song and this is the way how singer (who is also the lead 
i think) plays solo. So this is only 1 of 2 guitars...

eb|----------------------------------------------------|
Bb|------------6---6/8--10-11-8-10---8-----------------|
Gb|------7~--7---7----------------10---9-10-7-9----7-7-|
Db|--7-7-----------------------------------------10----|
Ab|-9--------------------------------------------------|
Eb|----------------------------------------------------|

eb|-----------------------------------------------------|
Bb|----------10----10/11-10-11-8-10----8----------------|
Gb|-/10~--10----10------------------10---9-10-7-9----7-7|
Db|-----------------------------------------------10----|
Ab|-----------------------------------------------------|
Eb|-----------------------------------------------------|


eb|-9b--9b--9-------------------------------------9----7-|
Bb|-----------10-7-8-7-----10b---8-8-8-8-7-----10---10---|
Gb|--------------------9-7-----------------9-9-----------|
Db|------------------------------------------------------|
Ab|------------------------------------------------------|
Eb|------------------------------------------------------|


eb|--17b-17b-17-14----------------14b-12-12-12-12--------------17----19~-|
Bb|----------------15-17-15-14-12-----------------15-14-14-/19----19-----|
Gb|----------------------------------------------------------------------|
Db|----------------------------------------------------------------------|
Ab|----------------------------------------------------------------------|
Eb|----------------------------------------------------------------------|

Verse 3
(first clean, 3 last notes distortion )
   Bm     Bm     Em *** Em      A     A     Bm    Bm
eb|-----------------0------0----------------------------|
Bb|----3-----3-------0------0-----2-----2-----3-----3---|
Gb|---4-4---4-4----0--0---0--0---2-2---2-2---4-4---4-4--|
Db|--4---4-4---4--2------2------2---2-2---2-4---4-4---4-|
Ab|-2-----2--------------------0-----0-----2-----2------|
Eb|--------------0------0-------------------------------|


   Bm     Bm     Em     Em     A     A     Bm    Bm
eb|-----------------0------0---------------------------|
Bb|----3-----3-------0------0-----2-----2--------------|
Gb|---4-4---4-4----0--0---0--0---2-2---2-2--4--6--7----|
Db|--4---4-4---4--2------2------2---2-2---2------------|
Ab|-2-----2--------------------0-----0------2--4--5----|
Eb|--------------0------0------------------------------|


Chorus:

(both distortion)
eb|-------------------0-----------------------------|
Bb|-------7-----------0-----2-----------3-----------|
Gb|-------7-----------0-----2-----------4-----------|
Db|-------7--7--2-----------2-----4-----4-----------|
Ab|-------5--7--2-----------0-----4-----2-----------|
Eb|----------5--0-----------------2-----------------|

eb|-------------------0-----------------------------|
Bb|-3-----7-----------0-----2-----------------------|
Gb|-4-----7-----------0-----2-----------------------|
Db|-5-----7--7--2-----------2-----4--7--9-----------|
Ab|-5-----5--7--2-----------0-----4--7--------------|
Eb|-3--------5--0-----------------2--5--7-----------|


Ending: !There are also two melodies and i will add another later!

Played slowly
eb|----------------------------------------------|
Bb|--------------------7-8---7-------------------|
Gb|----------7---7/9-------9---7-9-6-7--6--------|
Db|---/9--/9---7----------------------9--7-9-9---|
Ab|----------------------------------------------|
Eb|----------------------------------------------|


| /  slide up
| \  slide down
| h  hammer-on
| p  pull-off
| ~  vibrato
| +  harmonic
| x  Mute note
| PM palm muttes
| nh  natural harmonic
| b  bend
| br bend and release
Tap to rate this tab
# A B C D E F G H I J K L M N O P Q R S T U V W X Y Z