Song name
# A B C D E F G H I J K L M N O P Q R S T U V W X Y Z

Sturm Und Drang - Rising Son tab

                        STURM UND DRANG - RISING SON
Tabbed by: Trooper112       www.sturmunddrang.fi

Intro x4
|---------------------------------------------------------|
|---------------------------------------------------------|
|-------------------12-10--------------12-10--------------|
|-------------------------12-11-10\8---------12-11-10\8---|
|--5--8/10-8--3-------------------------------------------|
|--3--6/8--6--1-------------------------------------------|

verse x2 (Palm Muted)
|-------------------------------------------------------------------|
|-------------------------------------------------------------------|
|-------------------------------------------------------------------|
|-----------------8-8-8-8-8-8-8-8-3-3-3-3-3-3-3-3-------------------|
|-5-5-5-5-5-5-5-5-6-6-6-6-6-6-6-6-1-1-1-1-1-1-1-1-3-3-3-3-3-3-3-3---|
|-3-3-3-3-3-3-3-3---------------------------------1-1-1-1-1-1-1-1---|

Pre-Chorus
|----------------------------------------------------------------------|
|----------------------------------------------------------------------|
|----------------------------------------------------------------------|
|--5-5----7-7----8-8---10-10-10-10-10-10-10-10-10-10-10-10-10-10-10-10-|
|--3-3----5-5----6-6---8--8--8--8--8--8--8--8--8--8--8--8--8--8--8--8--|
|----------------------------------------------------------------------|

Chorus
|-----------------------------------|-------------------------------------|
|-----------------------------------|-------------------------------------|
|o---------------------------------o|-------------------------------------|
|o---------------8-------5---------o|--8-8--8-8--8-8--8-8--8-8------------|
|--5--8/10-8--3--6-------3----3-----|--6-6--6-6--6-6--6-6--6-6-(let ring)-|
|--3--6/8--6--1---------------1-----|-------------------------------------|

The slow part
|--0-----3-----1-----3---|-----3----|
|--1-----4-----3-----3---|-----0----|
|o-0-----5-----3-----3--o|-----0----|
|o-2-----5-----3-----5--o|-----0----|
|--3-----3-----1-----5---|-----2----|
|--------------------3---|-----3----|

Solo

i dont know the solo, but here is the 2nd guitar 
from the back of the solo

|-------------------------------------|
|-------------------------------------|
|-------------------------------------| 
|------------------10------7----------| x4
|-7--10/12-10--5---8-------5---5------|
|-5--8-/10-8---3---------------3------|

Ending
|--------------------|
|--------------------|
|--------------------|
|-8--7--5--3---------|
|-6--5--3--1-3--5\---|
|------------1--3\---|


Enjoy :D
please, rate
Tap to rate this tab
# A B C D E F G H I J K L M N O P Q R S T U V W X Y Z