Song name
# A B C D E F G H I J K L M N O P Q R S T U V W X Y Z

Stutterfly - Formula Of Flesh tab

----------------------------------------------------------------------------
			FORMULA OF FLESH- Stutterfly
----------------------------------------------------------------------------
Tabbed by: rocky192

Tuning: Drop C

this is just the basic chord rhythm that follows through the song- play as many
times as necessary

d|--------0-------|--------0-------|--------0-------|5-----4-----0---|
A|----7-----7---7-|----7-----7---7-|----5-----5---5-|--5-----5-----7-|
F|--6---6-----6---|--6---6-----6---|--6---6-----6---|----6-----6-----|
C|4---------------|4---------------|0---------------|----------------|
G|----------------|----------------|----------------|----------------|
C|----------------|----------------|----------------|----------------|

d|--------0-------|--------0-------|--------0-------|5-----7-----4---|
A|----7-----7---7-|----7-----7---7-|----5-----5---5-|--5-----5-----7-|
F|--6---6-----6---|--6---6-----6---|--6---6-----6---|----6-----6-----|
C|4---------------|4---------------|0---------------|----------------|
G|----------------|----------------|----------------|----------------|
C|----------------|----------------|----------------|----------------|


| /  slide up
| \  slide down
| h  hammer-on
| p  pull-off
| ~  vibrato
| +  harmonic
| x  Mute note
============================================================================
Tap to rate this tab
# A B C D E F G H I J K L M N O P Q R S T U V W X Y Z