Song name
# A B C D E F G H I J K L M N O P Q R S T U V W X Y Z

Stutterfly - Breath tab

Band- Stutterfly
Song Title: The Breath
Album: And We Are Bled Of Color
Tuning: C G C F A D
Tabbed By:Chris Boser
E-mail: Bullboze@optonline.net


Intro
D|---8----------12-------------8--------13------12---------------------|
A|--10----------13------------10--------13------13---------------------|
F|--10---------(14)-----------10---------------------------------------|
C|---8---------(15)------------8---------------------------------------|4x
G|---8-------------------------8---------------------------------------|
C|---8-------------------------8---------------------------------------|

Listen for the for the rhythm. Its easy to pickup.

Verse
D|-----------------------------------------------------------------|
A|-----------------------------------------------------------------|
F|---------------------9----------------------9--7h9---------------|
C|--88888---00000----10-10----88888---00000------------------------|  2x
G|--88888---00000-------------88888---00000------------------------|
C|--88888---00000-------------88888---00000------------------------|
    .....   .....             .....   .....


D|--------------------------------------------------------------------|
A|--------------------------------------------------------------------|
F|------10-10---10-10-10----------------------------------------------|
C|00----10-10---10-10-10---0-0----------------------------------------|2x
G|00----8--8----8--8--8----0-0---3h5-0-0000000------------------------|
C|00----8--8----8--8--8----0-0---3h5-0-0000000------------------------|
  ..                                 . .......

                          10 
                          10
                          8  ' s
Figure Out Rhythm for the 8


Chorus
D|-----------------------------------------------------------|
A|-----------------------------------------------------------|
F|--5---7---9---10-----5---7---10----------------------------|
C|--x---x---x---x------x---x---x-----------------------------|
G|--3---5---7---8------3---5---8-----------------------------|
C|-----------------------------------------------------------|

Rhythm is real easy, just listen to the cd.

Back To The Verse

Then Chorus Again


D|-----------------------------------------------------------------|
A|-----------------------------------------------------------------|
F|-----------------------------------------------------------------|
C|--0--------------------------------------------------------------|  4x
G|--0--00--0h3h5--00-----------------------------------------------|
C|--0--00--0h3h5--00---0h12h14--0h10h12---0h9h10-------------------|
       ..         ..

D|---------------------------------------------------------------------|
A|---------------------------------------------------------------------|
F|---------------------------------------------------------------------|
C|---------------------------------------------------------------------| 2x
G|--00--00--00--00-----------------------------------------------------|
C|--00--00--00--00--0h12h14--0h10h12--0h9h10---------------------------|

D|---------------------------------------------------------------------|
A|---------------------------------------------------------------------|
F|---------------------------------------------------------------------|
C|---------------------------------------------------------------------| 
G|--00~--00~--00~--00~-------------------------------------------------|
C|--00~--00~--00~--00~--0h12h14--0h10h12--0h9h10-----------------------|

D|--------------------------------------------------------------------|
A|--------------------------------------------------------------------|
F|--------------------------------------------------------------------|
C|---------------------------------------------------------0~---------| 
G|--00~--00~----00--00-------------------------------------0~---------|
C|--00~--00~----00--00-----0h12h14--0h10h12--0h9h10--------0~---------|

Then Back To Chorus and End on the Chorus





Thats it, im pretty sure thats right but you just need to figure out the rhythms to
certain parts.  any questions email me at Bullboze@optonline.net
Tap to rate this tab
 
# A B C D E F G H I J K L M N O P Q R S T U V W X Y Z