Stutterfly - Lifes Disease tab

This is my first tab ever, so I'm sure it's not very good, because my english  sucks and 
I don't have much skills at plying guitar, but I want to help you guys playing that 
easy song :)

Chords you gonna need: C, Em
Tuning: Standard

Intro:

Start with C or Cadd9 chord on the intro, but release the A string on the second 
part to ring open.

E-----------------------------------------------------|
B-----1----------1------------1-----------1-----------|
G--------0----------0------------0-----------0--------| x6
D-----------------------------------------------------|
A--3----------3------3-----0---------0--------0-------|
E-----------------------------------------------------|

Chorus:
       C         Em  Open Strings    Em
E---------------------------------------------|
B-----1----1----0---0----0----0----0----0-----|
G----0-0--0-0--0-0-0-0--0-0--0-0--0-0--0-0----| x2
D---------------------------------------------|
A--3------3----2---2----0----0----2---2-------|
E---------------------------------------------|

Then is the intro again:

-----------------------------------------------------|
B-----1----------1----------1----------1-------------|
G--------0----------0----------0----------0----------| x6
D----------------------------------------------------|
A--3----------3------3---0---------0-------0---------|
E----------------------------------------------------|

Chorus:

E---------------------------------------------|
B-----1----1----0---0----0----0----0----0-----|
G----0-0--0-0--0-0-0-0--0-0--0-0--0-0--0-0----| x2
D---------------------------------------------|
A--3------3----2---2----0----0----2---2-------|
E---------------------------------------------|

And finishing with the intro:

E--------------------------------------------------|
B-----1----------1----------1----------1-----------|
G--------0----------0----------0----------0--------| x6
D--------------------------------------------------|
A--3----------3------3---0---------0-------0-------|
E--------------------------------------------------|

So, that's the whole song, I hope I helped. :)
Tap to rate this tab
 
# A B C D E F G H I J K L M N O P Q R S T U V W X Y Z