Guitaretab - guitar tabs
Song name
# A B C D E F G H I J K L M N O P Q R S T U V W X Y Z

Stutterfly - Lifes Disease tab

Artist   : Stutterfly
Title    : Life's Disease
Album    : Broken in Pieces

Tabbed by: dustin7up
E-mail   : dustin7up@gmail.com
Tuning   : Drop-D {D,A,D,G,B,e}


May 15, 2007


This is just a different way to play this song. Sounds Perfect!  :)



Intro/Verse 1: (00:00 - 00:50)
e|--------------------------------------------|
B|------2~--------2~--------2~--------2~------|
G|--------------------------------------------|
D|---------4~--------4~--------4~--------4~---| {x6}
A|---2~--------2~-----------------------------|
D|-----------------------0~--------0~---------|



Chorus: (00:51 - 01:08)
e|----------------------------------------------------------------5--------5-----|
B|-------2--------2---------2--------2--------------------------3---3----3---3---|
G|---------------------------------------------4--------4-----0--------0---------|
D|-----4---4----4---4-----4---4----4---4-----2---2----2---2----------------------| {x2}
A|---2--------2----------------------------0--------0----------------------------|
D|----------------------0--------0-----------------------------------------------|


[ Tab from: http://www.guitaretab.com/s/stutterfly/54358.html ]
Verse 2: (01:09 - 01:42)
e|--------------------------------------------|
B|------2~--------2~--------2~--------2~------|
G|--------------------------------------------|
D|---------4~--------4~--------4~--------4~---| {x4}
A|---2~--------2~-----------------------------|
D|-----------------------0~--------0~---------|



Chorus: (01:43 - 01:08)
e|----------------------------------------------------------------5--------5-----|
B|-------2--------2---------2--------2--------------------------3---3----3---3---|
G|---------------------------------------------4--------4-----0--------0---------|
D|-----4---4----4---4-----4---4----4---4-----2---2----2---2----------------------| {x2}
A|---2--------2----------------------------0--------0----------------------------|
D|----------------------0--------0-----------------------------------------------|



Outro: (02:01 - 02:42)
e|--------------------------------------------|
B|------2~--------2~--------2~--------2~------|
G|--------------------------------------------|
D|---------4~--------4~--------4~--------4~---| {x4}
A|---2~--------2~-----------------------------|
D|-----------------------0~--------0~---------|

e|----------------------------|
B|------2~--------2~----------|
G|----------------------------|
D|---------4~--------4~-------| {x1}
A|---2~--------2~-------------|
D|-----------------------0~---|





Related for Lifes Disease tab