Song name
# A B C D E F G H I J K L M N O P Q R S T U V W X Y Z

Stutterfly - Bury Me The Scarlet Path tab

Artist: Stutterfly
Title: Bury Me
Albumn: ...And We are Bled of Color

* - Paml Mute
p - Pull-off
h - Hammer-on
/ - Slide

Intro - X6

E ---------0--------------0----------------------------|
B -------8--------------1---1--------------0-----------|
G -----5------5/ -----2---------------5-------5----5---|
D --7---------7/-- -3----------5/ -5-----5-------5-----|
A -----------------------------------------------------|
D -----------------------------------------------------|

Pre Verse - X1

E -------------------------------------------------------|------------|
B --5--------5--------5--------5--------5--------5-------|------------|
G --5--------5--------5--------5--------5--------5-------|------------|
D --7--7--7--7--7--7--7--7--7--7--7--7--7--7--7--7--7--7-|--7--3--3--5|
A -------------------------------------------------------|--7--3--3--5|
D -------------------------------------------------------|--7--3--3--5|

Verse X4
Gtr 1
E -------------------------------------------------------------------|
B -------------------------------------------------------------------|
G ---------9p0--------------9p0--------------5p0-------------7p0-----|
D -7-7--7------10p0--7-7--7-----10p0--3-3--3-----7p0--5-5--5-----9p0-|
A -7-7--7------------7-7--7-----------3-3--3----------5-5--5---------|
D -7-7--7------------7-7--7-----------3-3--3----------5-5--5---------|
   ***  *            ***  *           ***  *          ***  *         \
                                                                      |
Gtr 2 (Doesnt Play First 2 Times)                                    /    
E -------------------------------------------------------------------|
B -------------------------------------------------------------------|
G --------21p0-------------21p0-------------17p0------------19p0-----|
D ------------22p0-------------22p0-------------19p0------------21p0-|
A -------------------------------------------------------------------|
D -------------------------------------------------------------------|

Chorus- 
Part A)                      Part B)
Play Once                    Play 3 and a half times
              
E -----|Let       |-----------------|-------------------------|
B -----|That      |-----------------|-------------------------|
G -----|<--       |-----------------|-------------------------|
D -3~ -|Note      |-----------7-----|---------------3---------|
A -3~ -|Ring      |---7--7----7-----|--------3--3---3---------|
D -3~ -|          |---7--7----7-----|--------3--3---3---------|
                     **PM**                 **PM**


This is the Cool Interlude/Bridge thing they do, its played fairly fast

E 5p0-13p0-12p0-10p0-15p0-13p0-12p0-13p0-5p0-8p0-7p0-3p0-5p0-8p0-7p0-10p0-|
B ------------------------------------------------------------------------|
G ------------------------------------------------------------------------|
D ------------------------------------------------------------------------|
A ------------------------------------------------------------------------|
D ------------------------------------------------------------------------|

By: B Mills
Tap to rate this tab
# A B C D E F G H I J K L M N O P Q R S T U V W X Y Z