Song name
# A B C D E F G H I J K L M N O P Q R S T U V W X Y Z

Stutterfly - Out Of The Mud tab

This is only the intro to the song but it is correct

Tuning: Drop D (D A D G B E)

  E E E E E E E E   +E  E E E E E E E   +E  E E E E E E E   +E  E E E E E E E
|-----------------|-------------------|-------------------|-------------------|
|-----------------|-------------------|-------------------|-------------------|
|-----------------|-------------------|-------------------|-------------------|
|-----------------|-------------------|-------------------|-------------------|
|-----------------|-------------------|-------------------|-----------3-3-3-3-|
|-0-5-7-0-7-8-7-0-|-(0)-5-7-0-7-8-7-0-|-(0)-5-7-0-7-8-7-0-|-(0)-5-7-0---------|

  E E E E E E E E   +E  E E E E E E E   +E  E E E E E E E      H       H
|-----------------|-------------------|-------------------|-------------------|
|-----------------|-------------------|-------------------|-------------------|
|-----------------|-------------------|-------------------|-------------------|
|-----------------|-------------------|-------------------|-------------------|
|-----------------|-------------------|-------------------|-----------10\-----|
|-0-5-7-0-7-8-7-0-|-(0)-5-7-0-7-8-7-0-|-(0)-5-7-0-7-8-7-0-|-----------10\-----|


   E E E E E E E E   +E  E E E E E E E   +E  E E E E E E E   +E  E E E E E EE      
|------------------|-------------------|-------------------|--------------------|X4
|o-----------------|-------------------|-------------------|-------------------o|
|------------------|-------------------|-------------------|--------------------|
|--0-5-7-0-7-8-7-0-|-(0)-5-7-0-7-8-7-0-|-(0)-5-7-0-7-8-7-0-|-(0)-5-7-0-5-5-5-5--|
|o-0-5-7-0-7-8-7-0-|-(0)-5-7-0-7-8-7-0-|-(0)-5-7-0-7-8-7-0-|-(0)-5-7-0-3-3-3-3-o|
|--0-5-7-0-7-8-7-0-|-(0)-5-7-0-7-8-7-0-|-(0)-5-7-0-7-8-7-0-|-(0)-5-7-0----------|

LEGEND
H - half; E - 8th; + - note tied to previous


Tap to rate this tab
 
# A B C D E F G H I J K L M N O P Q R S T U V W X Y Z