Song name
# A B C D E F G H I J K L M N O P Q R S T U V W X Y Z

Style Council - Blue Cafe tab

THE BLUE CAFE
(Paul Weller)

n.c throughout
(implied chords only)

Hope what I've got helps.


    F  Ab Eb   C
E ----------------|---------|
B --1--4--11---8--|---------|
G ----------------|---------|
D --3--6--13--10--|---------|
A ----------------|---------|
E ----------------|---------|

  F

E -----------1--|----------------|-------------|-------------1/3----|--|
B --3--1--3-----|--3--1--3--6\1--|-1-----1-----|--1/3--1--3---------|--|
G --------------|----------------|----3-----3--|--------------------|--|
D --------------|----------------|-------------|--------------------|--|
A --------------|----------------|-------------|--------------------|--|
E --------------|----------------|-------------|--------------------|--|

  F

E -----------1--|------------------|--1(h)3(p)1(p)0------------|---------|
B --3--1--3-----|--1/3--1/3--1--3--|----------------1-----1----|--1--1/3-|
G --------------|------------------|-------------------3-----3-|---------|
D --------------|------------------|---------------------------|---------|
A --------------|------------------|---------------------------|---------|
E --------------|------------------|---------------------------|---------|

  F              Cm

E --------------|-----------|-----------------------|-----------------|---------------------|
B --1--3--6(h)7-|--8--------|----------8--8---------|-----------------|------------6--8/11--|
G --------------|----8------|--8(h)10--------8------|--8--8/10--8--7--|8--7--5--8-----------|
D --------------|-------10--|-------------------10--|-----------------|---------------------|
A --------------|-----------|-----------------------|-----------------|---------------------|
E --------------|-----------|-----------------------|-----------------|---------------------|


Thats as far as I've got so far thn it goes higher up the fretboard wiv loads of jazz licks
and that sort of stuff. The timing of the bars is very very rough indeed. But the notes
are right and if you know the song you should have no trouble with it, as soon I've bought
a new high E string I should be able to complete it.
Tap to rate this tab
# A B C D E F G H I J K L M N O P Q R S T U V W X Y Z