Guitaretab - guitar tabs
Song name
# A B C D E F G H I J K L M N O P Q R S T U V W X Y Z

Styles Of Beyond - Nine Thou Super Star Remix tab

Nine Thou (Super Star Remix)Tab by Styles Of Beyond From Need For Speed - Most Wanted soundtrack

Title:Nine Thou
Artist:Styles Of Beyond
Album:Megadef
Tabbed by: TKR
Happy New year!,This is my first Tab,I'm not sure 100% correct,but it's Sound good,Enjoy!
Email me: e_v_o_6@hotmail.com

Tunning(Drop D) : D a d g b e | Low to High

Instruction:
h=hammer on
p=pull off
s=slide
x=mute string
p.m.=plam mute


intro:
e|-------------|
b|-------------|
g|-------------|
d|--077587-077-| with Auto Wah
a|-------------|
D|-------------|

Then
(Heavy Distortion)

|--------- ------------ ---------- ------------ ------------|
|--X1----- -----X3----- ---------- -----X3----- ------------|
|--------- ------------ ---------- ------------ ------------|
|-5-4-3-0- 07757h8p7s5- 0775-4-3-0 -0-7-7-5-8-7 -0775-4-3-0-|Mute
|-5-4-3-0- 07757h8p7s5- 0775-4-3-0 -0-7-7-5-8-7 -0775-4-3-0-|Mute
|-5-4-3-0- 07757h8p7s5- 0775-4-3-0 -0-7-7-5-8-7 -0775-4-3-0-|Mute

Riff1:
(Light P.M.)
|---------------------------|
|---------------------------|
|---------------------------|
|---------------------------|
|---------------------------|
|-66-76--676--676-7s99776---| X2
[ Tab from: http://www.guitaretab.com/s/styles-of-beyond/67491.html ]
Riff2:
|---------    -------------  ---------    ------------    ---|
|---------    -------------  ---------    ------------    ---|
|---------    -------------  ---------    ------------    ---|
|-067-676- X3 -0676-7s9-97-  -6676-676 X2 -666mute-6-x X5 -6-|
|-067-676-    -0676-7s9-97-  -6676-676    -666-----6-x    -6-|
|-067-676-    -0676-7s9-97-  -6676-676    -666-----6-x    -6-|

Riff3:
|--------------------------------------------------------|
|--------------------------------------------------------|
|--------------------------------------------------------|
|-22-0-22-0-33-0-33-0-22-0-22-0-3333~--0~--3~--6~--5~--3-|
|-22-0-22-0-33-0-33-0-22-0-22-0-3333~--0~--3~--6~--5~--3-|
|-22-0-22-0-33-0-33-0-22-0-22-0-3333~--0~--3~--6~--5~--3-|

Riff4:
|-----------------    -----------------|
|-----------------    -----------------|
|-----------------    -----------------|
|-0-7-7-5-7h8p7s5- X3 --0-7-7-5-4-3-0~-|
|-0-7-7-5-7h8p7s5-    --0-7-7-5-4-3-0~-|
|-0-7-7-5-7h8p7s5-    --0-7-7-5-4-3-0~-|

and then goto Riff1
              Riff2
	      Riff3
              Riff4

Rap:

Riff5:
|--------------    -------|
|--------------    -------|
|--------------    -------|
|-0-7-7--5--8-7 X6 -0-----|Mute
|-0-7-7--5--8-7    -0-----|Mute
|-0-7-7--5--8-7    -0-----|Mute

and then goto Riff4 X4

End Riff:
|-----------------------|
|-----------------------|
|-----------------------|
|--540--540---540--5430-|
|--540--540---540--5430-|Mute on end
|--540--540---540--5430-|


Thank you for playing.
Related for Nine Thou Super Star Remix tab