Song name
# A B C D E F G H I J K L M N O P Q R S T U V W X Y Z

Styles Of Beyond - Bleach Jimi Remix tab

Bleach (Jimi Remix)
Styles of Beyond
Fort Minor: We Major (mixtape)
Tabbed by: zoastev (zoastev@yahoo.com)

Tunning: Standard

just play this through out the whole verse

|---0---0------|
|---3/5-5\-----|
|--------------|
|--------------|
|--------------|
|--------------|


the part after they say "Get the Bleach"

|-------12-------------------------------12-12-12----|
|--15b~----15-12--------------------15b-----15-12----|
|-------------12-14b-14p12----12~~---------------14b-|
|--------------------------14------------------------|
|----------------------------------------------------|
|----------------------------------------------------|

|----------------------------------------------------|
|-12-------------------------------------------------|
|----14--12h14p12b------12--12-------------12~~------|
|-------------------14----14-----------1214-----14---|
|----------------------------------\14---14----------|
|-------------------------------0--------------------|


the order is the verse and the "Get the Bleach" part and thats it :)

(as u might know this song is using samples from Jimi Hendrix's Hey Joe)


Tap to rate this tab
 
# A B C D E F G H I J K L M N O P Q R S T U V W X Y Z