Guitaretab - guitar tabs
Song name
# A B C D E F G H I J K L M N O P Q R S T U V W X Y Z
Home / S / Styx / Hangman tab

Styx - Hangman tab

This is my fav song from styx and my first tab so i hope you all enjoy

From listenin to the song so many times and trying to interpurt it i think this sounds 
right but feel free to make some changes.

After voice intro repeat this 2 x's
e-----------------------------------------------------------|
B-----------------------------------------------------------|
G--------------5-----------5~-----------5---/5-3~----------|
D-----------3--5---------3>5~---------35---/5-3~----------|
A-----3--5---------3--5---------3--5------------------------|
E-----------------------------------------------------------|
[ Tab from: http://www.guitaretab.com/s/styx/157645.html ]
e-----------------------------------------------------------|
B-----------------------------------------------------------|
G-----7-7-7--------7-7---------5-5-5--------5-5-------------|
D-----7-7-7--5--5--7-7---------5-5-5-3--3--5-5-------------|
A-----5-5-5--5--5--5-5---------3-3-3-3--3--3-3-------------|
E-----------------------------------------------------------|
      Nevermore  . . .

e-----------------------------------------------------------|
B-----------------------------------------------------------|
G-------------5-----------5~~------------0~-----------------|
D----------3--5---------3-5~~---------3--0~-----------------|
A-----3--5--------3--5----------3--5------------------------|
E-----------------------------------------------------------|
no voice for this but played by guitar 1 (clean cut)

e-----------------------------------------------------------|
B-----------------------------------------------------------|
G-----3--2-0-2-32/3-2-0-2-32-3-2/3-2/3-2-0--0~-----------|
D-----3--2-0-2-32/3-2-0-2-3-2-3-2/32/3-2-0--0~-----------|
A-----------------------------------------------------------|
E-3---------------------------------------------------------| x4

That is all i got up to the solo is a little tough to find out but when i think i just 
it rite then i'll post it

>PeeCeOUT<
Related for Hangman tab