Song name
# A B C D E F G H I J K L M N O P Q R S T U V W X Y Z

Styx - Miss America tab

This is straight from the STYX Guitar Collection Tab book.

e|--19----------------------------------------------------------------------|
B|------3/13----------------------------------------------------------------|
G|------------12b------------7--9-9b--7vvv---------------------14b---14-----|
D|------------------14--(14)\-----------------------------------------------|
A|--------------------------------------------------------------------------|
E|-----------------------------------------8/9\0-whammy dive-0--------------|

e|-------------------------------------------------------12-----------------|
B|----------------------------14b--------------------------12-15b-----15\7--|
G|--(14)vvv--12h14p12---14-12-14b--12h14p12--14---12-14b--------------------|
D|-------------------14--------------------14--14---------------------------|
A|--------------------------------------------------------------------------|
E|--------------------------------------------------------------------------|

e|--------------------------------------------------------------------------|
B|-----7-10p7--------------------------------------13b----------------------|
G|-9b--------9b-7---7/9vvv---12p9vvv--9\0/9\0---------14p12-----------------|
D|----------------9---------------------------6/14----------14p12----14p12--|
A|--------------------------------------------------------------------------|
E|--------------------------------------------------------------------------|

e|---------------------------------------------------------------------------|
B|----------------------------------------------------0--15b--12h15p12--15---|
G|-------------------------12-14brp12-14p12p0-w/bar---0---------------14--14-|
D|-------------------12--14---------------------------0----------------------|
A|-14----------12-14--------------------------------10-----------------------|
E|---15--12--15-----------------------------------10-8-----------------------|

e|-------------------------17-------------------12---15p12------------------|
B|-12--15--12--15bvvv-15b-----15b--------------------------15b---15---------|
G|--------------------------------16-14-16vvv-------------------------------|
D|------------------------0-------------------------------------------------|
A|--------------------------------------------------------------------------|
E|--------------------------------------------------------------------------|

Now, I'm 100% sure this is right because it's right out of the tab book.  Enjoy.
Tap to rate this tab
# A B C D E F G H I J K L M N O P Q R S T U V W X Y Z