Styx - Miss America tab

Intro:e:-----------------------------------------------------------------------|
      b:-----------------------------------------------------------------------|
      g:--------------------------------5--7------------------------------7--5-|
      D:-----------(2--5--2)------------5--7---------(2--5--2)------------7--5-|
      A:-----7p5h7-(2--5--2)-7h10p7---0-3--5---7p5h7-(2--5--2)-7h10p7---0-5--3-|
      E:-----------(0--3--0)-------------------------(0--3--0)-----------------|

e:------------------------------------------------------------|
b:------------------------------------------------------------|
g:--------------------------------5--7----4--4--4-2-----------| X3
D:-----------(2--5--2)------------5--7----4--4--4-2----5--7-7-|
A:-----7p5h7-(2--5--2)-7h10p7---0-3--5--0-2--2--2-0----5--7-7-|
E:-----------(0--3--0)------------------------------0--3--5-5-|
Tap to rate this tab
 
# A B C D E F G H I J K L M N O P Q R S T U V W X Y Z