Styx - Shooz tab

-------------------------------------------------------------------------------
			     Shooz - Styx
-------------------------------------------------------------------------------
Tabbed by: StyxGuitarist

Tuning: Open A
Just the rhythm part, do as you wish for lead.

Intro (15 times)
e |--------------------------------------------------------------------------|
C#|--------------------------------------------------------------------------|
A |----------2------3-------------------5b7-----5----------------------------|
E |----------2------3---3-5-3-0---------5b7-----5---3-5-3-0------------------|
A |---0--0----------------------0--0----------------------------------------|
E |--------------------------------------------------------------------------|

e |--------------------------------------------------------------------------|
C#|--------------------------------------------------------------------------|
A |----------2------3--------------------------------------------------------|
E |----------2------3---3-5-3-0-5b7---------5b7-----------------------------|
A |---0--0-----------------------5b7--5-3-0-5b7--5-3-0----------------------|
E |--------------------------------------------------------------------------|
    4x
e |--------------------------------|-----------------------------------------|
C#|--------------------------------|-----------------------------------------|
A |o----3----3--5--3--------------o|------3-----3----------------------------|
E |o----3----3-5--3--------------o|------3-----3-5b7---------5b7-----------|
A |--0-----0-----------3-0-----0---|---0-----0-----5b7-5-3-0-5b75-3-0-----|
E |------------------------0-3-----|-----------------------------------------|
Verse
    4x     (part a)                2x
e |-------------------------------|------------------------------|-----------|
C#|-------------------------------|------------------------------|-----------|
A |o----3----3--5--3-------------o|o-5--3--5--8--10--8----------o|-----------|
E |o----3----3--5--3-------------o|o-5--3--5--8--10--8----------o|-----------|
A |--0-----0----------3-0-----0---|--5--3--5--8--10--8--8-5-0-3--|-----------|
E |-----------------------0-3-----|------------------------------|-----------|

e |--------------------------------------------------------------------------|
C#|--------------------------------------------------------------------------|
A |-----3----3--5--3----------------3-----3--5--3----------------------------|
E |-----3----3--5--3----------------3-----3--5--3----------------------------|
A |--0-----0----------3-0-----0--0-----0-----------3-0-----------------------|
E |-----------------------0-3--------------------------0---------------------|
Chorus
e |--------------------------------------------------------------------------|
C#|--------------------------------------------------------------------------|
A |-------------2--3--5----------8----8--8--8--7--3--------------------------|
E |-------------2--3--5----------8----8--8--8--7--3--------------------------|
A |--4--5----5--2--3--5----------8----8--8--8--7--3--0-3-0---3-0-------------|
E |--2--3----3---------------------------------------------0-----------------|





Bridge
e |---------------------------------------------------------------------------|
C#|---------------------------------------------------------------------------|
A |-----3-----3-5--3----------------3-----3----------------------------------|
E |-----3-----3--5--3----------------3-----3----------------------------------|
A |--0-----0-----------3-0-----0--0-----0-------------------------------------|
E |------------------------0-3----------------0-2-3-3-0-2-3-3-0-2-3-3-0-2-3-3-|
        Solo 1 Rhythm (4x)			(4x)
e |------------|----------------------|-----------------------|--------------|
C#|------------|-----6-3-6--3--8--6---|------8-5-8--5--10--8--|--------------|
A |------------|o-3--6-3-6--3--8--6--o|o--5--8-5-8--5--10--8-o|--------------|
E |------------|o-3--6-3-6--3--8--6--o|o--5--8-5-8--5--10--8-o|--------------|
A |------------|--3-------------------|---5-------------------|--------------|
E |--0-2-5\----|----------------------|-----------------------|--------------|
      (2x)
e |--------------------------|-----------------------------------------------|
C#|------10-7-10--7--12--10--|-----------------------------------------------|
A |o--7--10-7-10--7--12--10-o|--7--10--12--10-7-5--5-7---3------3-----------|
E |o--7--10-7-10--7--12--10-o|--7--10--12--10--7-5--5-7---3------3-----------|
A |---7----------------------|--7--10--12--10--7-5--5-7---3--5---3--5--------|
E |--------------------------|-------------------------------3------3--------|

Solo 2 Rhythm  Play verse and chorus once


Song Order

Intro
Verse
Chorus
Verse
Chorus
Bridge
Solo 1 (Tommy w/slide)
Solo 2 (JY)
Intro
Chorus
Verse Part A till fade (first part of verse that is repeated)


************************************

| /   slide up
| \   slide down
| h   hammer-on
| p   pull-off
| ~   vibrato
| +   harmonic
| x   Mute note
| b   Bend
| pb  Pre-bend
| br  Bend release
| pbr Pre-bend release
| brb Bend release bend

************************************
Tap to rate this tab
 
# A B C D E F G H I J K L M N O P Q R S T U V W X Y Z