Guitaretab - guitar tabs
Song name
# A B C D E F G H I J K L M N O P Q R S T U V W X Y Z

Styx - Come Sail Away tab

-----------------------------------------------------------------------------
	              Come Sail Away (Intro)  Styx
-----------------------------------------------------------------------------
Tabbed by: Josh G. Herder
Email:strat_man70@yahoo.com

This is a good finger picking piece for this song. It takes a lot of work but after you 
mastered it you can add it to what you already know of this song.

Tuning:EADGBe

|----------------------------------------------------------------------------|
|-------------------------------------------3--------1-----------------------|
|--------0------0------0------0----------------------------------------------|
|-------------------------------------2---------2--------2--------2----------|
|----3------3------3------3-------3--------------------------3--------5------|
|----------------------------------------------------------------------------|
[ Tab from: http://www.guitaretab.com/s/styx/29700.html ]
|----------------------------------------------------------------------------|
|---------3------------------------------------------------------------------|
|---------------------5-----------------------------7---------5--------------|
|-----3--------3------------3---------3--------5---------5---------5---------|
|---------------------------------5--------7----------------------------7----|
|----------------------------------------------------------------------------|

|----------------------------------------------------------------------------|
|----------------------------------------------------------------------------|
|-----------------------3------------5--------------5----4-----2-----4----5--|
|------5---------3-----------3---------------3-------------------------------|
|-----------5----------------------------------------------------------------|
|----------------------------------------------------------------------------|

|----------------------------------------------------------------------------|
|----------------------------------------------------------------------------|
|----------------------------------------------------------------------------|
|----------------------------------------------------------------------------|
|----3----3-------2--------2---------3-----2----0----2---3-------------------|
|-------3------3-------3-------3---------------------------------------------|
Related for Come Sail Away tab