Song name
# A B C D E F G H I J K L M N O P Q R S T U V W X Y Z

Styx - Come Sail Away tab

Come Sail Away (Intro)
by, Styx     "The greatest band in the world!!!!"
Tabs by Jessica Ferguson

Intro: (*Piano arr. for guitar)
|-----22--20-----|-----22--20-----|-----22--20-----|
|-17----------17-|-18----------18-|-20----------20-|
|----------------|----------------|----------------|
|----------------|----------------|----------------|
|----------------|----------------|----------------|
|----------------|----------------|----------------|

|-----22--20--20p19p17h19h20-|
|-18-------------------------|
|----------------------------|
|----------------------------|
|----------------------------|
|----------------------------|

|-------------------|-------------------------|
|----8---8---8----8-|----10----10----10----10-|
|------9---9--------|-------10----10----------|
|-10-----------10---|-12----------------12----|
|-------------------|-------------------------|
|-------------------|-------------------------|

|-------------------------|-------------------------|
|----12----12----12----12-|----10----10----10----10-|
|-------12----12----------|-------10----10----------|
|-14----------------14----|-12----------------12----|
|-------------------------|-------------------------|
|-------------------------|-------------------------|

|-20--------------------|--------------------|    
|-------20--------------|--------------------|    Then the Verse starts...
|-----------17----17----|-16(17)----16----16-|    
|-----------------------|--------------19----|    Any questions, E-Mail me @
|-----------------------|--------------------|    guitarrock1994@yahoo.com
|-----------------------|--------------------|           Have fun!!!!
Tap to rate this tab
# A B C D E F G H I J K L M N O P Q R S T U V W X Y Z