Song name
# A B C D E F G H I J K L M N O P Q R S T U V W X Y Z

Styx - Rockin The Paradise tab

-------------------------------------------------------------------------------
			     Rockin' the Paradise - Styx
-------------------------------------------------------------------------------
Tabbed by: andy sitek
Email: guitarman832@hotmailcom

Tuning: standard

intro order

intro riff 1 x1
intro riff 2 x1
repeat 4x

intro riff 1
       [---3---|
e|---------------------------------------------------|
B|--14-14-14-14--15-14-14--12--12-12--12-12/14-------|
G|--14-14-14-14--14-14-14--12--12-12--12-12/14-------|
D|--14-14-14-14--16-14-14--12--12-12--12-12/14-------|
A|---------------------------------------------------|
E|---------------------------------------------------|

intro riff 2
      [---3----|
e|------------------------------------------------------|
B|-14--14-14-14--15-14-14-15-14-14-12-12-12/14----------|
G|-14--14-14-14--14-14-14-14-14-14-12-12-12/14----------|
D|-14--14-14-14--16-14-14-16-14-14-12-12-12/14----------|
A|------------------------------------------------------|
E|------------------------------------------------------|
then this fill used at the end of the song too

e|------------------------------------------------|
B|------------------------------------------------|
G|------------------------9-------12-------14-----|
D|-----5-----7------9-----------------------------|
A|-5-7---7-9---9-11---9-11---12-14----14-16-------|
E|--------------------|

e|------------------------------------------------|
B|-14\-14\-14\------14\---------------------------|
G|-14\-14\-14\------14\---------------------------|
D|-14\-14\-14\------14\---------------------------|
A|------------------------------------------------|
E|------------------------------------------------|

verse through whole song
e|-----------------------------------------------|
B|-----------------------------------------------|
G|-----------------------------------------------|
D|-2---4---4-2---4--4--7--2---2------------------|
A|-0---2---2-0---2--2--5--0---0------------------|
E|-----------------------------------------------|

fill in verses
e|-------------------------|
B|-7br-7-5-3---------------|
G|-----------7p5p4\2-------|
D|-------------------------|
A|-------------------------|
E|-------------------------|

chorus
e|--------------------------|
B|------------------9-------|
G|-------8-9-11-9-8-7-------|
D|-------6-7--9-7-6---------|
A|-11-12--------------------|
E|-9--10--------------------|x3 then the next part

e|---------------------|
B|-11------------------|
G|--9------------------|
D|----14----------14---|
A|----12----------12---|
E|-------12-11-10------|

great song, i'll get the solo in sometime
e-mail me with corrections guitarman832@hotmail.com

| /  slide up
| \  slide down
| h  hammer-on
| p  pull-off
| ~  vibrato
| +  harmonic
| x  Mute note
[--3--] triplets
Tap to rate this tab
 
# A B C D E F G H I J K L M N O P Q R S T U V W X Y Z