Guitaretab - guitar tabs
Song name
# A B C D E F G H I J K L M N O P Q R S T U V W X Y Z

Styx - Rockin In Paradise tab

     rockin' in paradise -styx
-------------------------------------------------------------------------------
Tabbed by:nate m
Email:nate2890@yahoo.com

Tuning:EADGBe

riff 1

e|-9--9--9--10--9--7-7-7-7-7-7-7--------------------------------------------|
B|-10-10-10-10--10-8-8-8-8-8-8-8--------------------------------------------|
G|-9--9--9--9---9--7-7-7-7-7-7-7--------------------------------------------|
D|--------------------------------------------------------------------------|
A|--------------------------------------------------------------------------|
E|--------------------------------------------------------------------------|

riff 2

e|-9--9--9--10--9--10--9--7--------------------------------------------------|
B|-10-10-10-10--10-10-10--8--------------------------------------------------|
G|-9--9--9--9---9--9---9--7--------------------------------------------------|
D|---------------------------------------------------------------------------|
A|---------------------------------------------------------------------------|
E|---------------------------------------------------------------------------|

  lead in
[ Tab from: http://www.guitaretab.com/s/styx/94269.html ]
e|--------------------------------------------------------------------------|
B|--------------------------------------------------------------------------|
G|---------------------------------------8--11------10--13------------------|
D|---2--5----4--7-----6--9-----8--11--9---------11--------------------------|
A|-3------5--------7--------9-----------------------------------------------|
E|--------------------------------------------------------------------------|

  then

e|-12-12-12-----12\0--------------------------------------------------------|
B|-14-14-14-----14\2--------------------------------------------------------|
G|-14-14-14-----14\2--------------------------------------------------------|
D|-14-14-14-----14\2--------------------------------------------------------|
A|-12-12-12-----12\0--------------------------------------------------------|
E|x-------------------------------------------------------------------------|

   so play riff 1, then riff 2, then riff 1, and riff 2 again. then you play the lead in 
the bar chord. have fun.
                                later

| /  slide up
| \  slide down
| h  hammer-on
| p  pull-off
| ~  vibrato
| +  harmonic
| x  Mute note
Related for Rockin In Paradise tab
×
Best way to learn
"Rockin In Paradise"